Song name
# A B C D E F G H I J K L M N O P Q R S T U V W X Y Z

Nine Black Alps - Another World tab

------------------------ Nine Black Alps ------------------------------------
------------------------- Another World -------------------------------------

Tabbed By: Dięgo Palmeira

Intro:
 Guitar 1:
E|-----------------------------|
A|-7--2---7--2-----------------|
D|-9--4---9--4-----------------|
G|-9--4---9--4-----------------|
B|-----------------------------|
E|-----------------------------|

E|-----------------------------|
A|--2---2---2---2---2---2------|
D|--4---4---4---4---4---4------|
G|--4---4---4---4---4---4------|
B|-----------------------------|
E|-----------------------------|

 Guitar 2: 
E|-----------------------------|
A|-----------------------------|
D|-----------------------------|
G|-9--4--9--4--4-4-5-4--4-4-5-4|
B|-----------------------------|
E|-----------------------------|

 Verse:
E|-----------------------------|
A|-7--2---7--2-----------------|
D|-9--4---9--4-----------------|
G|-9--4---9--4-----------------|
B|-----------------------------|
E|-----------------------------|

E|-----------------------------|
A|--2---2---2---2---2---2------|
D|--4---4---4---4---4---4------|
G|--4---4---4---4---4---4------|
B|-----------------------------|
E|-----------------------------|

 Chorus:
 In Another World...
E|-----------------------------|
A|-0---0---0---0---0-----------|
D|-2---2---2---2---2-----------|
G|-2---2---2---2---2-----------|
B|-----------------------------|
E|-----------------------------|

E|--3---3---3---3---3----------|
A|--5---5---5---5---5----------|
D|--5---5---5---5---5----------|
G|-----------------------------|
B|-----------------------------|
E|-----------------------------|

Guitar 2:
E|--------------------3--3-----|
A|-------------0--0---5--5-----|
D|-------------2--2---5--5-----|
G|-2h4-4-4-4---2--2------------|
B|-----------------------------|
E|-----------------------------|
 Pont:
E|-----------------------------|
A|-5--5--5--5-----2--2--2--2---|
D|-7--7--7--7-----4--4--4--4---|
G|-7--7--7--7-----4--4--4--4---|
B|-----------------------------|
E|-----------------------------|
    (Back to Chorus)

End: (Some seconds of psychedelia)
E|-----------------------------|
A|--2---2---2---2---2---2------|
D|--4---4---4---4---4---4------|
G|--4---4---4---4---4---4------|
B|-----------------------------|
E|-----------------------------|
Tap to rate this tab
 
# A B C D E F G H I J K L M N O P Q R S T U V W X Y Z