Song name
# A B C D E F G H I J K L M N O P Q R S T U V W X Y Z

Nine Black Alps - Cosmopolitan tab

Nine Black Alps-Cosmopolitan
Tabbed By Sam King
Tune down a tone

Intro
Guitar 1
D|-----------------------------|
A|-----------------------------|
F|-----------------------------|
C|-9-9---2-2---5-5---2-2---9-9-| x2
G|-----------------------------|
D|-----------------------------|

D|---------------------------------|
A|---------------------------------|
F|---------------------------------| x2
C|-----9-9-----2-2-----5-5-----2-2-|
G|-0-0-----0-0-----0-0-----0-0-----|
D|---------------------------------|

D---------------------------|
A---------------------------|
F-16-16---9-9---12-12---9-9-|
C-16-16---9-9---12-12---9-9-| x2
G-14-14---7-7---10-10---7-7-|
D---------------------------|

Verse-you can work out how many times to play each one
D-----|--------|----------|--------|------|
A-----|--------|----------|--------|------|
F-9-7-|-6----4-|-7------9-|-6----4-|-7----|
C-----|--------|----------|--------|------| 
G-----|--------|----------|--------|------|
D-----|--------|----------|--------|------|

D---------------------------|
A---------------------------|
F-16-16---9-9---12-12---9-9-|
C-16-16---9-9---12-12---9-9-| 
G-14-14---7-7---10-10---7-7-|
D---------------------------|

Chorus
“so shock me”
D------------x-x-x-x-|
A-9-x-10-x-9-x-x-x-x-|
F-9-x-10-x-9-x-x-x-x-| x4
C-9-x-10-x-9-x-x-x-x-|
G-7-x-8--x-7-x-x-x-x-|
D------------x-x-x-x-|

“you spend a night...”
D-8---------|-5--------|-8--------|-5----6----|
A-8---------|-5--------|-8--------|-5----6----|
F-9---------|-6--------|-9--------|-6----7----|
C-8---------|-5--------|-8--------|-5----6----|
G-10--------|-7--------|-10-------|-7----8----|
D-8---------|-5--------|-8--------|-5----6----|
Tap to rate this tab
 
# A B C D E F G H I J K L M N O P Q R S T U V W X Y Z