Song name
# A B C D E F G H I J K L M N O P Q R S T U V W X Y Z

Nine Black Alps - Attraction tab

Intro
              E              C             Bm5       Bm
E-x--x--x--x--0--0-0---0-0---0--0-0---0-0---2--2-2---2-2---|
B-x--x--x--x--0--0-0---0-0---1--1-3p1-1-1---3--3-3---3-3---|
G-x--x--x--x--0--0-2p0-0-0---0--0-0---0-0---2--2-5/4-4-4---|
D-x--x--x--x--2--2-2---2-2---2--2-2---2-2---4--4-4---4-4---|
A-x--x--x--x--2--2-2---2-2---3--3-3---3-3---2--2-2---2-2---|
E-x--x--x--x--0--0-0---0-0---------------------------------|

  C        ?
E-0--0-0-0-0-0-------|
B-1--1-1-1/3-3-------|
G-0--0-0-0-0-0-------|
D-2--2-2-2/4-4-------|   x2
A-3--3-3-3/5-5-------|
E--------------------|

Vers :   Em  C  Bm  C and slide to the unknown chord
Tap to rate this tab
 
# A B C D E F G H I J K L M N O P Q R S T U V W X Y Z