Song name
# A B C D E F G H I J K L M N O P Q R S T U V W X Y Z

Nine Black Alps - Behind Your Eyes tab

Artist: Jon Foreman
Song: Behind Your Eyes
Album: Fall And Winter (LowerCase People/Credential) (2008)
Written by: Jon Foreman
Tabbed by: José D. Montenegro M.
Tuning: Standard (EADGBe)

Chords:
    C  Am7 Gsus F(I) F(II)
e|--3--------------------|
B|--1--1---1----1----1---|
G|--0--0---0----2----0---|
D|--2--2---2----3----2---|
A|--3--0-----------------|
E|---------3---------1---|

Intro (x2):
e|--------------------------|---------------------------|
B|-----1------1----1------1-|-----1------1----1------1--|
G|----0------0----0------0--|----0------0----0------0---|
D|-------0h2---------0h2----|-------0h2---------0h2-----|
A|--3-----------3-----------|--0-----------0------------|
E|--------------------------|---------------------------|

e|--------------------------|------------------------|
B|-----1------1----1------1-|-----1------1-----------|
G|----0--0h2-0----0--0h2-0--|----0------0------------|
D|--3-----------3-----------|-------0h2----2--2p0----|
A|--------------------------|---------------------2--|
E|--------------------------|--3---------------------|

Verse 1:
e|--------------------------|---------------------------|
B|-----1------1----1------1-|-----1------1----1------1--|
G|----0------0----0------0--|----0------0----0------0---|
D|-------0h2---------0h2----|-------0h2---------0h2-----|
A|--3-----------3-----------|--0-----------0------------|
E|--------------------------|---------------------------|
   If you let your feelings go, dear…

e|--------------------------|------------------------|
B|-----1------1----1------1-|-----1------1-----------|
G|----0--0h2-0----0--0h2-0--|----0------0------------|
D|--3-----------3-----------|-------0h2----2--2p0----|
A|--------------------------|---------------------2--|
E|--------------------------|--3---------------------|
  …it's scary what you'll find

e|--------------------------|---------------------------|
B|-----1------1----1------1-|-----1------1----1------1--|
G|----0------0----0------0--|----0------0----0------0---|
D|-------0h2---------0h2----|-------0h2---------0h2-----|
A|--3-----------3-----------|--0-----------0------------|
E|--------------------------|---------------------------|
   I find I'm on your street, dear…

e|--------------------------|------------------------|
B|-----1------1----1------1-|-----1------1-----------|
G|----0--0h2-0----0--0h2-0--|----0------0------------|
D|--3-----------3-----------|-------0h2----2--2p0----|
A|--------------------------|---------------------2--|
E|--------------------------|--3---------------------|
   …and you're always on my mind

Chorus 1:
e|--------------------------|---------------------------|
B|-----1------1----1------1-|-----1------1----1------1--|
G|----0------0----0------0--|----0------0----0------0---|
D|-------0h2---------0h2----|-------0h2---------0h2-----|
A|--------------------------|--0-----------0------------|
E|--1-----------1-----------|---------------------------|
   And no one needs to know…

e|--------------------------|---------------------------|
B|-----1------1----1------1-|-----1------1----1------1--|
G|----0------0----0------0--|----0------0----0------0---|
D|-------0h2---------0h2----|-------0h2---------0h2-----|
A|--------------------------|--0-----------0------------|
E|--1-----------1-----------|---------------------------|
   …that you let me in tonight


e|------------------------|--------------------------|
B|-----1------1----1------|-----1------1-------------|
G|----0------0----0-------|----0------0--------------|
D|-------0h2----2----2p0--|-------0h2----2--2p0------|
A|------------------------|---------------------2-3--|
E|--1---------------------|--3-----------------------|
   …that you let me see the world…

Interlude (x2):
e|--------------------------|---------------------------|
B|-----1------1----1------1-|-----1------1----1------1--|
G|----0------0----0------0--|----0------0----0------0---|
D|-------0h2---------0h2----|-------0h2---------0h2-----|
A|--3-----------3-----------|--0-----------0------------|
E|--------------------------|---------------------------| 
   …behind your eyes…

e|--------------------------|------------------------|
B|-----1------1----1------1-|-----1------1-----------|
G|----0--0h2-0----0--0h2-0--|----0------0------------|
D|--3-----------3-----------|-------0h2----2--2p0----|
A|--------------------------|---------------------2--|
E|--------------------------|--3---------------------|

Verse 2:
e|--------------------------|---------------------------|
B|-----1------1----1------1-|-----1------1----1------1--|
G|----0------0----0------0--|----0------0----0------0---|
D|-------0h2---------0h2----|-------0h2---------0h2-----|
A|--3-----------3-----------|--0-----------0------------|
E|--------------------------|---------------------------|
   I wanna see us work, dear…

e|--------------------------|------------------------|
B|-----1------1----1------1-|-----1------1-----------|
G|----0--0h2-0----0--0h2-0--|----0------0------------|
D|--3-----------3-----------|-------0h2----2--2p0----|
A|--------------------------|---------------------2--|
E|--------------------------|--3---------------------|
   …to reach the other side

e|--------------------------|---------------------------|
B|-----1------1----1------1-|-----1------1----1------1--|
G|----0------0----0------0--|----0------0----0------0---|
D|-------0h2---------0h2----|-------0h2---------0h2-----|
A|--3-----------3-----------|--0-----------0------------|
E|--------------------------|---------------------------|
   Our treachery is love, dear…

e|--------------------------|------------------------|
B|-----1------1----1------1-|-----1------1-----------|
G|----0--0h2-0----0--0h2-0--|----0------0------------|
D|--3-----------3-----------|-------0h2----2--2p0----|
A|--------------------------|---------------------2--|
E|--------------------------|--3---------------------|
   …we're on both ends of the fight


Chorus 2:
e|--------------------------|---------------------------|
B|-----1------1----1------1-|-----1------1----1------1--|
G|----0------0----0------0--|----0------0----0------0---|
D|-------0h2---------0h2----|-------0h2---------0h2-----|
A|--------------------------|--0-----------0------------|
E|--1-----------1-----------|---------------------------|
   We're fighting for ourselves…

e|--------------------------|---------------------------|
B|-----1------1----1------1-|-----1------1----1------1--|
G|----0------0----0------0--|----0------0----0------0---|
D|-------0h2---------0h2----|-------0h2---------0h2-----|
A|--------------------------|--0-----------0------------|
E|--1-----------1-----------|---------------------------|
   … fighting for our lives

e|------------------------|--------------------------|
B|-----1------1----1------|-----1------1-------------|
G|----0------0----0-------|----0------0--------------|
D|-------0h2----2----2p0--|-------0h2----2--2p0------|
A|------------------------|---------------------2-3--|
E|--1---------------------|--3-----------------------|
   Would you let me see the world…

Interlude (x2):
e|--------------------------|---------------------------|
B|-----1------1----1------1-|-----1------1----1------1--|
G|----0------0----0------0--|----0------0----0------0---|
D|-------0h2---------0h2----|-------0h2---------0h2-----|
A|--3-----------3-----------|--0-----------0------------|
E|--------------------------|---------------------------| 
  …behind your eyes…

e|--------------------------|------------------------|
B|-----1------1----1------1-|-----1------1-----------|
G|----0--0h2-0----0--0h2-0--|----0------0------------|
D|--3-----------3-----------|-------0h2----2--2p0----|
A|--------------------------|---------------------2--|
E|--------------------------|--3---------------------|

Chorus 3:
e|--------------------------|---------------------------|
B|-----1------1----1------1-|-----1------1----1------1--|
G|----0------0----0------0--|----0------0----0------0---|
D|-------0h2---------0h2----|-------0h2---------0h2-----|
A|--------------------------|--0-----------0------------|
E|--1-----------1-----------|---------------------------|
   And no one needs to know…

e|--------------------------|---------------------------|
B|-----1------1----1------1-|-----1------1----1------1--|
G|----0------0----0------0--|----0------0----0------0---|
D|-------0h2---------0h2----|-------0h2---------0h2-----|
A|--------------------------|--0-----------0------------|
E|--1-----------1-----------|---------------------------|
   …how scared we are tonight

e|------------------------|------------------------|
B|-----1------1----1------|-----1------1----1------|
G|----0------0----0-------|----0------0----0-------|
D|-------0h2----2----2p0--|-------0h2----2----2p0--|
A|------------------------|------------------------|
E|--1---------------------|--3---------------------|
   …would you let me see the world behind your eyes…?

e|------------------------|--------------------------|
B|-----1------1----1------|-----1------1-------------|
G|----0------0----0-------|----0------0--------------|
D|-------0h2----2----2p0--|-------0h2----2--2p0------|
A|------------------------|---------------------2-3--|
E|--1---------------------|--3-----------------------|
   …would you let me see the world…

Interlude (x2):
e|--------------------------|---------------------------|
B|-----1------1----1------1-|-----1------1----1------1--|
G|----0------0----0------0--|----0------0----0------0---|
D|-------0h2---------0h2----|-------0h2---------0h2-----|
A|--3-----------3-----------|--0-----------0------------|
E|--------------------------|---------------------------| 
  …behind your eyes…

e|--------------------------|------------------------|
B|-----1------1----1------1-|-----1------1-----------|
G|----0--0h2-0----0--0h2-0--|----0------0------------|
D|--3-----------3-----------|-------0h2----2--2p0----|
A|--------------------------|---------------------2--|
E|--------------------------|--3---------------------|

End:
e|------------------------|--------------------------|
B|-----1------1----1------|-----1------1-------------|
G|----0------0----0-------|----0------0--------------|
D|-------0h2----2----2p0--|-------0h2----2--2p0------|
A|------------------------|---------------------2-3--|
E|--1---------------------|--3-----------------------|
   …would you let me see the world…

e|--------------------------|---------------------------|
B|-----1------1----1------1-|-----1------1----1------1--|
G|----0------0----0------0--|----0------0----0------0---|
D|-------0h2---------0h2----|-------0h2---------0h2-----|
A|--3-----------3-----------|--0-----------0------------|
E|--------------------------|---------------------------| 
   …behind your eyes…?

e|--------------------------|-----------------------3--|
B|-----1------1----1------1-|-----1------1----------1--|
G|----0--0h2-0----0--0h2-0--|----0------0-----------0--|
D|--3-----------3-----------|-------0h2----2--2p0---2--|
A|--------------------------|---------------------2-3--|
E|--------------------------|--3-----------------------|

Great song, simply beautiful… I know the song seems really difficult, but it's
simple… I mean, after you play it over and over again, maybe isn't 100%
accurate 'cause this is my first tab so comment and rate please… you can mail
me: 'j053montenegro@yahoo.es' (it's a zero in j053). 

GOD bl3s5 U.
j:053[d:]montNgro, your Latino brother.
Tap to rate this tab
# A B C D E F G H I J K L M N O P Q R S T U V W X Y Z