Song name
# A B C D E F G H I J K L M N O P Q R S T U V W X Y Z

Nine Black Alps - Pocket Full Of Stars tab

----------------------------------------------------------------------------
	       POCKET FULL OF STARS - Nine Black Alps
----------------------------------------------------------------------------
Tabbed by: James
Email: the.master.ofpuppets@hotmail.com

Guitar I: Accoustic
Guitar II: Electric

Tuning: standard

0:00
Guitar I:
e|------------0----------------------------0-------------------------------|
B|-----1------1------1---------------1-----------1-----0-------------------|
G|--------2--------------2--0-----------0-----------0----------------------|
D|-------------------------------------------------------------------------|
A|--0-----------------------------3----------------------------------------|
E|----------------0--------------------------3-----------------------------|

0:00
Guitar II:
e|-------------------------------------------------------------------------|
B|--13~~~~~~~~~~~~~~~~~~~~~~~~~~~~/17~~~~~~~~~~~~~~------------------------|
G|-------------------------------------------------------------------------|
D|-------------------------------------------------------------------------|
A|-------------------------------------------------------------------------|
E|-------------------------------------------------------------------------|

0:05
Guitar I:
e|--------------3-------------------------------2--------------------------|
B|------0---------------0-----0----------3------3------3------0------------|
G|----------0--------------0----------------2-------------2----------------|
D|-------------------0---------------0-------------------------------------|
A|--------------------------------------------------0----------------------|
E|--3----------------------------------------------------------------------|

0:05
Guitar II:
e|-------------------------------------------------------------------------|
B|-\15~~~~~~~~~~~~~~~~~~~~~~~~~~~~~~/19~~~~~~~~~~~~~~~~~~~~~~~~~~~~~~~~----|
G|-------------------------------------------------------------------------|
D|-------------------------------------------------------------------------|
A|-------------------------------------------------------------------------|
E|-------------------------------------------------------------------------|

0:08
Guitar I:
e|------------0----------------------------0-------------------------------|
B|-----1------1------1---------------1-----------1-----0-------------------|
G|--------2--------------2--0-----------0-----------0----------------------|
D|-------------------------------------------------------------------------|
A|--0-----------------------------3----------------------------------------|
E|----------------0--------------------------3-----------------------------|

0:08
Guitar II:
e|-------------------------------------------------------------------------|
B|--13~~~~~~~~~~~~~~~~~~~~~~~~~~~~/17~~~~~~~~~~~~~~------------------------|
G|-------------------------------------------------------------------------|
D|-------------------------------------------------------------------------|
A|-------------------------------------------------------------------------|
E|-------------------------------------------------------------------------|

0:12
Guitar I:
e|--------------3-------------------------------2--------------------------|
B|------0---------------0-----0----------3------3------3------0------------|
G|----------0--------------0----------------2-------------2----------------|
D|-------------------0---------------0-------------------------------------|
A|--------------------------------------------------0----------------------|
E|--3----------------------------------------------------------------------|

0:12
Guitar II:
e|-------------------------------------------------------------------------|
B|-\15~~~~~~~~~~~~~~~~~~~~~~~~~~~~~~/19~~~~~~~~~~~~~~~~~~~~\~~~~~~~~~~~----|
G|-------------------------------------------------------------------------|
D|-------------------------------------------------------------------------|
A|-------------------------------------------------------------------------|
E|-------------------------------------------------------------------------|


Verse 1:
Guitar I:
e|------------0----------------------------0-------------------------------|
B|-----1-------------1-------1--------0-----------0-----0------------------|
G|--------0--------------0--------------0-----------0----------------------|
D|-------------------------------------------------------------------------|
A|--3-------------3--------------------------------------------------------|
E|--------------------------------0-----------0----------------------------|
              I don't knooooooooooooow

Guitar I:
e|--------------3-------------------------------2--------------------------|
B|------0---------------0-----0----------3-------------3------0------------|
G|----------0--------------0----------------2-------------2----------------|
D|-----------------------------------0--------------0----------------------|
A|-------------------------------------------------------------------------|
E|--3----------------3-----------------------------------------------------|
         who you are


Guitar I:
e|------------0----------------------------0-------------------------------|
B|-----1-------------1-------1--------0-----------0-----0------------------|
G|--------0--------------0--------------0-----------0----------------------|
D|-------------------------------------------------------------------------|
A|--3-------------3--------------------------------------------------------|
E|--------------------------------0-----------0----------------------------|
               and  I don't knooooooooooooow

Guitar I:
e|--------------3-------------------------------2--------------------------|
B|------0---------------0-----0----------3-------------3------0------------|
G|----------0--------------0----------------2-------------2----------------|
D|-----------------------------------0--------------0----------------------|
A|-------------------------------------------------------------------------|
E|--3----------------3-----------------------------------------------------|
          where you've been

Guitar I:
e|------------0----------------------------0-------------------------------|
B|-----1-------------1-------1--------0-----------0-----0------------------|
G|--------0--------------0--------------0-----------0----------------------|
D|-------------------------------------------------------------------------|
A|--3-------------3--------------------------------------------------------|
E|--------------------------------0-----------0----------------------------|
               Always ooooooooooooooooooooout

Guitar I:
e|--------------3-------------------------------2--------------------------|
B|------0---------------0-----0----------3-------------3------0------------|
G|----------0--------------0----------------2-------------2----------------|
D|-----------------------------------0--------------0----------------------|
A|-------------------------------------------------------------------------|
E|--3----------------3-----------------------------------------------------|
            on your own

Guitar I:
e|------------0----------------------------0-------------------------------|
B|-----1-------------1-------1--------0-----------0-----0------------------|
G|--------0--------------0--------------0-----------0----------------------|
D|-------------------------------------------------------------------------|
A|--3-------------3--------------------------------------------------------|
E|--------------------------------0-----------0----------------------------|
               Always doooooooooooown

Guitar I:
e|--------------3-------------------------------2--------------------------|
B|------0---------------0-----0----------3-------------3------0------------|
G|----------0--------------0----------------2-------------2----------------|
D|-----------------------------------0--------------0----------------------|
A|-------------------------------------------------------------------------|
E|--3----------------3-----------------------------------------------------|
                 on your knees     now you know I need a

Chorus:
Guitar I:
e|-------------0----------------------------------0------------------------|
B|------1--------------1-------------------1--------------1-------0--------|
G|---------2---------------2----0--------------0--------------0------------|
D|-------------------------------------------------------------------------|
A|--0----------------------------------3-----------------------------------|
E|------------------0----------------------------------3-------------------|
    Mii......................iracle      A star crossed lover

Guitar II:
e|-------------------------------------------------------------------------|
B|--13~~~~~~~~~~~~~~~~~~~~~~~~~~~~~~~~~/17~~~~~~~~~~~~~~-------------------|
G|-------------------------------------------------------------------------|
D|-------------------------------------------------------------------------|
A|-------------------------------------------------------------------------|
E|-------------------------------------------------------------------------|


Guitar I:
e|------------------3-------------------------------------2----------------|
B|----------0------------------0-------0----------3---------------3------0-|
G|--------------0------------------0------------------2---------------2----|
D|------------------------0-------------------0----------------------------|
A|-------------------------------------------------------------0-----------|
E|----3--------------------------------------------------------------------|
        An arrow in my heaaart

Guitar II:
e|-------------------------------------------------------------------------|
B|-\15~~~~~~~~~~~~~~~~~~~~~~~~~~~~~~/19~~~~~~~~~~~~~~~~~~~~~~~~~~~~~~~~----|
G|-------------------------------------------------------------------------|
D|-------------------------------------------------------------------------|
A|-------------------------------------------------------------------------|
E|-------------------------------------------------------------------------|


Guitar I:
e|-------------0----------------------------------0------------------------|
B|------1--------------1-------------------1--------------1-------0--------|
G|---------2---------------2----0--------------0--------------0------------|
D|-------------------------------------------------------------------------|
A|--0----------------------------------3-----------------------------------|
E|------------------0----------------------------------3-------------------|
   I need a rainy day              in an endless Summer

Guitar II:
e|-------------------------------------------------------------------------|
B|--13~~~~~~~~~~~~~~~~~~~~~~~~~~~~~~~~~/17~~~~~~~~~~~~~~-------------------|
G|-------------------------------------------------------------------------|
D|-------------------------------------------------------------------------|
A|-------------------------------------------------------------------------|
E|-------------------------------------------------------------------------|


Guitar I:
e|--------------3-------------------------------2--------------------------|
B|------0---------------0-----0----------3-------------3------0------------|
G|----------0--------------0----------------2-------------2----------------|
D|-----------------------------------0--------------0----------------------|
A|-------------------------------------------------------------------------|
E|--3----------------3-----------------------------------------------------|
        A Pocket full of Staaaaaaaars

Guitar II:
e|-------------------------------------------------------------------------|
B|-\15~~~~~~~~~~~~~~~~~~~~~~~~~~~~~~/19~~~~~~~~~~~~~~~~~~~~~~~~~~~~~~~~----|
G|-------------------------------------------------------------------------|
D|-------------------------------------------------------------------------|
A|-------------------------------------------------------------------------|
E|-------------------------------------------------------------------------|

Verse 2: Same guitar as Verse 1

same picking pattern for these chords

  C     E                  G  D  
Maybe you're just like me

  C     E                  G  D  
You see faces in the crowd

  C     E                  G  D  
Looking down at their feet

  C     E                  G  D 
Never once make a sound       Now you know I need a


Chorus: Same as first


Bridge:
Guitar I:
e|---------------0----------------0----------------------------------------|
B|---------1--------------1--------------1-----1------0------0-------------|
G|------------2---------------2--------------------------------------------|
D|------------------------------------------0-----2------4-----------------|
A|----0--------------2----------------3------------------------------------|
E|-------------------------------------------------------------------------|

Guitar I:
e|--------------3-------------------------------2--------------------------|
B|------0---------------0-----0----------3-------------3------0------------|
G|----------0--------------0----------------2-------------2----------------|
D|-----------------------------------0--------------0----------------------|
A|-------------------------------------------------------------------------|
E|--3----------------3-----------------------------------------------------|

Guitar I:
e|---------------0----------------0----------------------------------------|
B|---------1--------------1--------------1-----1------0------0-------------|
G|------------2---------------2--------------------------------------------|
D|------------------------------------------0-----2------4-----------------|
A|----0--------------2----------------3------------------------------------|
E|-------------------------------------------------------------------------|

Guitar I:
e|--------------3-------------------------------2--------------------------|
B|------0---------------0-----0----------3-------------3------0------------|
G|----------0--------------0----------------2-------------2----------------|
D|-----------------------------------0--------------0----------------------|
A|-------------------------------------------------------------------------|
E|--3----------------3-----------------------------------------------------|

Chrous: Same as first

Then play verse part and sing oooohh-oohhh-ohhh


Finish on:
e|--------------0~~~~~-----------------------------------------------------|
B|------------1~~~~~~~-----------------------------------------------------|
G|----------0~~~~~~~~~-----------------------------------------------------|
D|--------2~~~~~~~~~~~-----------------------------------------------------|
A|------3~~~~~~~~~~~~~-----------------------------------------------------|
E|-------------------------------------------------------------------------|

and thats the song, not compliacteds at  all, but should u have any problems email me or 
vote and comment


also incase u wanted to know, theres a little lead part i figured out that they play 
its just the melody of the ooh ooh oohhs which goes likes this:
e|-----7---5\3--/5---7---5\3-----------------------------------------------|
B|----------------------------3/5------------------------------------------|
G|-------------------------------------------------------------------------|
D|-------------------------------------------------------------------------|
A|-------------------------------------------------------------------------|
E|-------------------------------------------------------------------------|

| /  slide up
| \  slide down
| h  hammer-on
| p  pull-off
| ~  vibrato
| +  harmonic
| x  Mute note
============================================================================
Tap to rate this tab
# A B C D E F G H I J K L M N O P Q R S T U V W X Y Z