Song name
# A B C D E F G H I J K L M N O P Q R S T U V W X Y Z

Nine Black Alps - Everytime I Turn tab

-------------------------------------------------------------------------------
			     Everytime I Turn - Nine Black Alps
-------------------------------------------------------------------------------
awesome song by nba theyre new album is amazing this isnt 100% correct but i tried my 
and it will be updated soon.

Tuning:halfstepdown

Intro

Guitar 1(distortion)

e|--------------------------------------------------------------------------------------|
B|-------------------------------------9-6----------------------------------------------|
G|-8b-6-8-6~---6-8-8b-6-8--8b-6-8-6~-------9-8--6-8-8b-6-8-6~----6-8-8b-6-8-9~13~18~----|
D|-----------8-----------------------8-------------------------8------------------------|
A|--------------------------------------------------------------------------------------|
E|--------------------------------------------------------------------------------------|

Guitar 2(distortion)

e|-----------------------------------------------------------------------|
B|-----------------------------------------------------------------------|
G|-2222------5555------2222------5555------2222------5555----------------|
D|-2222-3-33-5555-2-22-2222-3-33-5555-2-22-2222-3-33-5555-2-22-2222-4444-|
A|-0000-3-33-3333-2-22-0000-3-33-3333-2-22-0000-3-33-3333-2-22-2222-4444-|
E|------1-11------0-00------1-11------0-00------1-11------0-00-0000-2222-|

Verse

Guitar 1(clean)

e|-----------------------------------------------------------------------------------|
B|-----------------------------------------------------------------------------------|
G|-----------2222333322223333-----------22223333-111111111111-9999-111111111111-9999-|
D|-2----4----3333333333333333-2222-3333-33333333-111111111111-9999-111111111111-9999-|
A|-2----4----1111111111111111-2222-3333-11111111-9-9-9-9-9-9--7777-9-9-9-9-9-9--7777-|
E|-0----2---------------------0000-1111----------------------------------------------|

Guitar 2(distortion)

e|-----------------------------------------------------------------------------------|
B|-----------------------------------------------------------------------------------|
G|-----------------------------------------------------------------8bu---8bd----6-5--|
D|-----------2222333322223333-----------22223333-111111111111-9999-------------------|
A|-----------1111111111111111-2222-3333-11111111-9-9-9-9-9-9--7777-------------------|
E|----------------------------0000-1111----------------------------------------------|
             ................ .... .... ........ ............ ....

Chorus

Guitar 1(distortion)

e|-------------------------------------------------------/--8--8--8--10--|
B|-------------------------------------------------------/10-10-10-10----|
G|-2222------5555------2222------5555------2222------5555/---------------|
D|-2222-3-33-5555-2-22-2222-3-33-5555-2-22-2222-3-33-5555/---------------|
A|-0000-3-33-3333-2-22-0000-3-33-3333-2-22-0000-3-33-3333/---------------|
E|------1-11------0-00------1-11------0-00------1-11---------------------|


Guitar 2(distortion)

e|-----------------------------------------------------------------------|
B|-----------------------------------------------------------------------|
G|-2222------5555------2222------5555------2222------5555----------------|
D|-2222-3-33-5555-2-22-2222-3-33-5555-2-22-2222-3-33-5555-2-22-2222-4444-|
A|-0000-3-33-3333-2-22-0000-3-33-3333-2-22-0000-3-33-3333-2-22-2222-4444-|
E|------1-11------0-00------1-11------0-00------1-11------0-00-0000-2222-|

Both Guitars(distortion)

e|--------------------------------------|
B|-2///////////////////////////////////-|
G|-2///////////////////////////////////-|
D|-2///////////////////////////////////-|
A|-0///////////////////////////////////-|
E|--------------------------------------|

Verse(reapeat)

chorus(repeat)

Bridge

e|-------------------------------------------|
B|-66-6-66-6-66-6-66/1212-12-12-1212-12-1212-|
G|-55-5-55-5-55-5-55/1313-13-13-1313-13-1313-| x 2
D|-55-5-55-5-55-5-55/1313-13-13-1313-13-1313-|
A|-77-7-77-7-77-7-77/1111-11-11-1111-11-1111-|
E|-------------------------------------------|

repeat intro

repeat bridge

post bridge

Guitar 2(slight distortion)

e|-----------------------------------------|
B|-----------------------------------------|
G|-2222------5555------2222------5555------|
D|-2222-3-33-5555-2-22-2222-3-33-5555-2-22-|
A|-0000-3-33-3333-2-22-0000-3-33-3333-2-22-|
E|------1-11------0-00------1-11------0-00-|

play last bit of chorus repeat

repeat outro
Tap to rate this tab
 
# A B C D E F G H I J K L M N O P Q R S T U V W X Y Z