Song name
# A B C D E F G H I J K L M N O P Q R S T U V W X Y Z

Nine Days - Absolutely Story Of A Girl tab

Absolutely Tab by Nine Days, www.Ultimate-Guitar.Com 
absolutely (story of a girl) solo  (unplugged)
surfboard23@hotmail.com 

Standard tuning

e|-------------7--------------7-10-12-10--10-10-10-10-10-1919-17-15-12p1010|
B|8---8-10-8--8--10-10/12-8--8---------------------------------------------|
G|-------------------------------------------------------------------------|
D|-------------------------------------------------------------------------|
A|-------------------------------------------------------------------------|
E|-------------------------------------------------------------------------|

e|--7p5-3-6b---------------------------------------------------------------|
B|--------6b-------------------------------------10-8-10/12----------------|
G|---------------7-7-7-7-------------7-7-7-7-7-7---------------------------|
D|-----------------------5h7-5-5-5-----------------------------------------|
A|-------------------------------------------------------------------------|
E|-------------------------------------------------------------------------|

e|-------------------------------------------------------------------------|
B|-----------8-8-8-10-12-8-8-8----8-8-8-10-12-12-10-8----------------------|
G|-------------------------------------------------------------------------|
D|-------------------------------------------------------------------------|
A|-------------------------------------------------------------------------|
E|-------------------------------------------------------------------------|
        
                                      
e|--15-15-15-12-12-10-7-10/12----151515151515151515--12-12-10--------------|
B|-------------------------------------------------------------------------|
G|-------------------------------------------------------------------------|
D|-------------------------------------------------------------------------|
A|-------------------------------------------------------------------------|
E|-------------------------------------------------------------------------|

e|-7-5-3-0-3-5-3-----3-----------------------------------------------------|
B|---------------------3====/5---------------------------------------------|
G|------------------------------7-5p4p2p0----------------------------------|
D|-------------------------------------------------------------------------|
A|-------------------------------------------------------------------------|
E|-------------------------------------------12\\\0----(this is the story…)|

| /  slide up
| \  slide down
| h  hammer-on
| p  pull-off

Tap to rate this tab
 
# A B C D E F G H I J K L M N O P Q R S T U V W X Y Z