Song name
# A B C D E F G H I J K L M N O P Q R S T U V W X Y Z

Nine Days - Crazy tab

Nine Days, Crazy.
 Tabbed by Brian Bost Man,  Brian MatthewsBnd@aol.com.
 
Intro, Verse

e-3---------3---------------------
B-3---------3---------------------
G-0---------0---------------------
D-0---------2---------------------
A-2--0-h2---3---------------------
E-3-------------------------------

The words inside...

e--3--3--3-----------
B--3--3--2-----------
G--0--0--3-----------
D--2--2--0-----------
A--3--2--------------
E--------------------

Dont you know...

e-3--------3----3---------
B-3--------3----2---------
G-0--------0----3---------
D-0--------2----0---------
A-2--0-h2--3--------------
E-3-----------------------


The 2nd chord to the D, is quick

thats all folks
 I need help with If I am, if u know anything email me 
:: Ultimate Guitar Archive :: 
http://www.ultimate-guitar.com 

 
Tap to rate this tab
# A B C D E F G H I J K L M N O P Q R S T U V W X Y Z