Song name
# A B C D E F G H I J K L M N O P Q R S T U V W X Y Z

Nine Days - Dont Look Back tab

Standard Tuning

Chords:

    F#       C#      D#      B      Bb       G#     G#1     Bb1
e|---2---|-------|-------|-------|-------|-------|-------|-------|
B|---2---|-------|-------|-------|-------|-------|-------|-------|
G|---3---|---6---|---8---|---4---|---3---|-------|-------|---3---|
D|---4---|---6---|---8---|---4---|---3---|---6---|---6---|---4---|
A|---4---|---4---|---6---|---2---|---1---|---6---|---6---|---1---|
E|--(2)--|-------|-------|-------|-------|---4---|---6---|-------|


Played over verse:

e|-------------------------------------------------|
B|------7------9-----7----------7------------------|
G|--6h8---6---------------6h8------6---------------|
D|-------------------------------------------------|   x3
A|-------------------------------------------------|
E|-------------------------------------------------|

Played between chorus and verse:

e|--6-7-6-------------6-7-6------------------------|
B|---------9---7--9----------9---(7)---------------|
G|-------------------------------------------------|
D|-------------------------------------------------|   x2
A|-------------------------------------------------|
E|-------------------------------------------------|


Intro/verse:
F# C# D# B   x2

             F#                              C#
How does it feel up there, breathing in the fine air

        D#                               B
You can't look down, but you do not care

     F#                    C#                   D#         B
when every face knows, the lonely place you've become


             F#                              C#
And you can dream up there, with your soul laid bare

     D#                         B
and close your eyes, on the life you share

     F#                      C#                         D#        B
and you can pretend that it won't mean a thing when it's gone


Pre-Chorus:

    Bb       B
Cuz now you see, you're so good looking

           Bb     B       G#                     G#1
you should be on TV, but now you're on the radio



Chorus:

B                 C#         F#                    C#   B
don't look back, don't look back, when you hear me calling

             Bb1
don't look back

                G#           G#1
don't look back

B                 C#         F#                    C#   B
don't look back, don't look back, when you hear me calling

             Bb1
don't look back

                G# 
don't look back

Solo:

e|------------------------------------------------9-9--|
B|--11p9--------11p9----------11p9------------9--------|
G|-------11--8--------11------------11-10-11-----------|
D|------------------------11---------------------------|x2 Then to Chorus
A|-----------------------------------------------------|
E|-----------------------------------------------------|


Outro: [Same as Intro Chords]

e|-----------------------------------9----|
B|--11p9---------11p9------------9--------|
G|-------11--8----------11-10-11----------|
D|----------------------------------------|   x2  Then back to Chorus
A|----------------------------------------|
E|----------------------------------------|


F# C# D# B 

End on E:
e|---|
B|-9-|
G|-9-|
D|-9-|
A|-7-|
E|---|



Lyrics:

How does it feel up there
breathing in the fine air
You can't look down
but you do not care
when every face knows
the lonely place you've become

And you can dream up there
with your soul laid bare
and close your eyes
on the life you share
and you can pretend that it won't mean a thing
when it's gone

Cuz now you see
you're so good looking
you should be on TV
but now you're on the radio

don't look back
don't look back
when you hear me calling
don't look back
don't look back

don't look back
don't look back
when you hear me calling
don't look back
don't look back

How does it feel up there
breathing in the fine air
you can't look down
but you do not care
when every face knows
the lonely place you've become

And you can dream up there
with your soul laid bare
and close your eyes
on the life that you share
and you can pretend that it won't mean a thing
when it's gone

cuz now you see
you're so good looking
you should be on tv
but now you're on the radio

don't look back
don't look back
when you hear me calling
don't look back
don't look back

don't look back
don't look back
when you hear me calling
don't look back
don't look back

when you hear me calling you
when you hear me calling you
when you hear me calling you

I know that nobody knows
where it comes from
or where it goes
or the time you will find

don't look back
don't look back
when you hear me calling
don't look back
don't look back

don't look back
don't look back
when you hear me calling
don't look back
don't look back

when you hear me calling you
oooooooo
you hear me calling you
oooooooo
you hear them calling you
oooooooo
you hear them calling you
oooooooo
you hear them calling you


Enjoy!
Tap to rate this tab
# A B C D E F G H I J K L M N O P Q R S T U V W X Y Z