Song name
# A B C D E F G H I J K L M N O P Q R S T U V W X Y Z

Nine Days - So Far Away chords

Highlighted       Show chord diagrams
capo 3 fret

Am                             G
If you leave, where will you go?
               Em                                                           G
Before the regret you hold in your heart will start to show
               Am                  G
And if you leave, how will you know?
       Em                             G
If our ever after ever had a chance to grow
       Am                   G
Do you dream or do you sleep?
       Em                                          G }
Do you pick and choose amongst the jewels for one to keep
       Am          G
Do you wish upon a star?
        Em                                                 G
Or does everything just out of reach seem just too far away

Refrao:
G               D  C9
Nothing seems to change
          D   G           D  C9
Let alone you wont forget my name
               G    D        C9
Just don't lose what you know
     D     G    D        C9
Just don't lose what you know
               D
When you're so far away...


2nd Verse: (mesma coisa)


Solo:
6 vezes
e | --------------------------7-5--------------------------7-5--|
B | --5-5-5-5-5-5-5-5-5-5-5-5------5-5-5-5-5-5-5-5-5-5-5-5------|
G | ------------------------------------------------------------|
D | ------------------------------------------------------------|
A | ------------------------------------------------------------|
E | ------------------------------------------------------------|

What you lose is what you know
Where you go is where you grow
How near we've come has yet to show
We've come so close yet so far away
So far away


Ponte:
e | --2-0-2-0-2-0-2-0-2---|  12 times
B | --3-3-3-3-3-3-3-3-3---|
G | --0-0-0-0-0-0-0-0-0---|
D | ----------------------|
A | ----------------------|
E | ----------------------|

What did I do to you?
What did I do to you?

G                     D*
What did I do to you?
G                  D*
What did I do to you?

Refrao:
G               D  C9
Nothing seems to change
          D   G           D  C9
Let alone you wont forget my name
               Em                D
Just don't lose what you know
               Am            C9
Just don't lose what you know

When you're so far away...
G               D  C9   D
What did I do to you? So far away
G               D  C9   D
What did I do to you? So far away
G               D  C9   D
What did I do to you? So far away
G               D  C9   D
What did I do to you? So far away


Outro:
e | --2-0-2-0-2-3-2-0---|  8 times
B | --3-3-3-3-3-3-3-3---|
G | --0-0-0-0-0-0-0-0---|
D | --------------------|
A | --------------------|
E | --------------------|

...
e | ----3--------0------|  4   times
B | ----3--------3------|
G | ----0--------0------|
D | --------------------|
A | --------------------|
E | --------------------|
Tap to rate this tab
# A B C D E F G H I J K L M N O P Q R S T U V W X Y Z