Song name
# A B C D E F G H I J K L M N O P Q R S T U V W X Y Z

Nine Days - Absolutely Story Of A Girl tab

--------------------------------------------------------------------------
Song: Story of a Girl (Solo)
Artist: Nine Days
Tabbed by: RedRaptor10 / Rockerboy2012

Tuning: Standard

h = hammer on
p = pull off
b = bend
r = release
/ = slide up
\ = slide down
--------------------------------------------------------------------------

Guitar 1 starts off by playing this in the background:

e|--3-3-3-3-3-3--|
B|--3-3-3-3-3-3--|
G|--0-0-0-0-2-2--|
D|--2-2-2-2-0-0--|
A|--2-2-2-2-0-0--|
E|--0-0-0-0-2-2--|

Guitar 2 comes in after Guitar 1's part.

e|------------------------------------------------------------------------|
B|----------------------------15---15-15-17-15---15----15---15-15---------|
G|--12----12-14b16r14p12---16-----------------------16--------------------|
D|-----14-----------------------------------------------------------------|
A|------------------------------------------------------------------------|
E|------------------------------------------------------------------------|

e|--19-19-17-15-----------------------------------------------------------|
B|--------------17p15-15-15-------------15--------------------------------|
G|--------------------------16p14-------14b15-----------------------------|
D|--------------------------------14\12-----------------------------------|
A|------------------------------------------------------------------------|
E|------------------------------------------------------------------------|

e|------------------------------------------------------------------------|
B|------------------------------------------------------------------------|
G|--7-7---7----------------------------7-7---7----------------------------|
D|--7-7---7-8r7p5---5-----5------------7-7---7-7-7b9---7p5-7/9------------|
A|----------------------7-------------------------------------------------|
E|------------------------------------------------------------------------|

e|--15-15---15----------------------------------15-15---15------------------------|
B|--15-15---15----------------------------------15-15---15------------15----------|
G|-------------14---14b16-12-12---12-----------------------14---14b16----15r14-12-|
D|--------------------------------------------------------------------------------|
A|--------------------------------------------------------------------------------|
E|--------------------------------------------------------------------------------|

e|--12h15-15-15---12---12---10---10-10/12------12h15-15-15-15-15-15-15-----|
B|--12h15-15-15---12---12---10---10-10/12------12h15-15-15-15-15-15-15-----|
G|-------------------------------------------------------------------------|
D|-------------------------------------------------------------------------|
A|-------------------------------------------------------------------------|
E|-------------------------------------------------------------------------|

e|-------------------------------------------------------------------------|
B|--12---------------------------------------------------------------------|
G|--14b16---16r14p12-14p12---14b16r14p12---14p12---------------------------|
D|-------------------------------------------------14\12-------------------|
A|-------------------------------------------------------------------------|
E|-------------------------------------------------------------------------|

e|-------------------------------------------------------------------------|
B|-------------------------------------------------------------------------|
G|-------------------------------------------------------------------------|
D|--12-12-12-12-14-14-14-14-14-12------------------------------------------|
A|--------------------------------14-13-12\10------------------------------|
E|--------------------------------------------12p10------------------------|
Tap to rate this tab
# A B C D E F G H I J K L M N O P Q R S T U V W X Y Z