Song name
# A B C D E F G H I J K L M N O P Q R S T U V W X Y Z

Nine Days - Story Of A Girl tab

----------------------------------------------------------------------------
ABSOLUTLEY (STORY OF A GIRL) - Nine Days
----------------------------------------------------------------------------

Tabbed by:2guitargod4 (sam)
Email:sam.rocks.123@hotmail.com

Tuning:Standard

This solo is bery different as it using both jazz like strumming and soloing together. 
to get the timing and technique correct. Give it a go, Enjoy.

e|-------------------------10-10-12-x-10------10-10-12-x-10-----------------|
B|-xx-10-10h12-10-10h12-xx---------------12---------12-x-10-----------------|
G|-xx-------------------xx--------------------------------------------------|
D|--------------------------------------------------------------------------|
A|--------------------------------------------------------------------------|
E|--------------------------------------------------------------------------|

e|-------17b19-17b19-17~-15-----------------------------------|
B|-xx---x--------------------17-15----15----------15\---------|
G|-xx--x---------------------------16----16\14-12-14\---------|
D|------------------------------------------------------------|
A|------------------------------------------------------------|
E|------------------------------------------------------------|

2nd Solo

e|-----------------x-x------------------------------------------------------|
B|-15b16-----------x-x-------x-x---x-x--------------------------------------|
G|-14b15-----7-7-7-x-x-------x-x---x-x--4-4-x-5-x-4-------------------------|
D|---------------------7p5-5-x-x-5-x-x------x---x---7-7-7-5-7/9-------------|
A|--------------------------------------------------------------------------|
E|--------------------------------------------------------------------------|

e|-x-x-----------------------x-x------x-x-----------------------------------|
B|-x-x-8-8-8-8-x-10-x-10-x-8-x-x-8----x-x-8-8-8-8-10-/12-12-10-8------------|
G|-x-x-7-7-7-7-x--7-x-7--x-7-x-x-7----x-x-7-7-7-7-7--/11-11-7--7------------|
D|--------------------------------------x-----------------------------------|
A|--------------------------------------------------------------------------|
E|--------------------------------------------------------------------------|

e|-x-x-/15-15-15-15-12-12-10-x-10/12-x-x-/15-15-15-15-15-15-15-15-15--------|
B|-x-x-/15-15-15-15-12-12-10-x-10/12-x-x-/15-15-15-15-15-15-15-15-15--------|
G|-x-x-/14-14-14-14------------------x-x-/14-14-14-14-14-14-14-14-14--------|
D|--------------------------------------------------------------------------|
A|--------------------------------------------------------------------------|
E|--------------------------------------------------------------------------|

e|-12-x-10\--x-x------------------------------x-x---------------------------|
B|-12-x-10\--x-x-10b12r10p8---8-10p8--/10-----x-x-8-8-8-8-8-8-8-8-----------|
G|-----------x-x------------9---------/9--7\--x-x-7-7-7-7-9-9-9-9-----------|
D|----------------------------------------7\------9-9-9-9-9-9-9-9-----------|
A|--------------------------------------------------------------------------|
E|--------------------------------------------------------------------------|

e|--------------------------------------------------------------------------|
B|--------------------------------------------------------------------------|
G|-9p7----------------------------------------------------------------------|
D|-----9-8-7-6-5------------------------------------------------------------|
A|---------------7\\\-------------------------------------------------------|
E|--------------------------------------------------------------------------|

Improvise with the strumming pattern as it is hard to get the timing in some parts.

************************************

| /   slide up
| \   slide down
| h   hammer-on
| p   pull-off
| ~   vibrato
| +   harmonic
| x   Mute note
| b   Bend
| pb  Pre-bend
| br  Bend release
| pbr Pre-bend release
| brb Bend release bend

************************************
Tap to rate this tab
# A B C D E F G H I J K L M N O P Q R S T U V W X Y Z