Song name
# A B C D E F G H I J K L M N O P Q R S T U V W X Y Z

Nine Days - If I Am tab

Tabbed & Arranged by: Josh Daley

Tuning (Both Guitars): E A D Gb B Gb

Guitar 1: Tablature (Acoustic)
Guitar 2: Tablature (Acoustic/Electric)



Verse:


   Guitar 1:

   --0----0----0----0---0--|
   --0----0----0----0---0--|
   --0----0----0----0---0--|
   --9----8----6----7---9--|
   --9----9----6----7--11--|
   --7----7----4----5------|


   Guitar 2: (start on the 8th bar - Single strums only)

   --5----4----2----3------|
   --7----7----4----5------|
   --5----5----2----3------|
   ------------------------|
   ------------------------|
   ------------------------|



Pre-chorus:


   Guitar 1:

   --0----0----0----0----------|
   --0----0----0----0----------|
   --0----0----0----0----------|
   --2----4----6----9--------9-|
   --2----4----6----9---9/11---|
   --0----2----4----7----------|

   --0----0----0----0----|
   --0----0----0----0----|
   --0----0----0----0----| (Let Ring)
   --2----4---11----2----|
   --2----4---11----2----|
   --0----2----9----0----|


   Guitar 2:

   ---------------------------------------------------------------------------|
   --16--------16------14--------14------16--------16------16------/16/14-12--|
   -----17-------17-------16-------16-------17-------17------17---------------|
   --------16------16--------16------16--------16------16------16-------------|
   ---------------------------------------------------------------------------|
   ---------------------------------------------------------------------------|

   -------------------------------------------------------------|
   --16--------16------14--------14------16--------16-----------|
   -----17-------17-------16-------16-------17-------17---------|
   --------16------16--------16------16--------16------16--2----|
   --------------------------------------------------------2----|
   --------------------------------------------------------0----|



Chorus:

   Guitar 1 & 2:

   --0--0--0--0--0--0--0-----|
   --0--0--0--0--0--0--0-----|
   --0--0--0--0--0--0--0-----| x2
   --9^84--2--9--6--4--2-----|
   --9--4--2--9--6--4--2-----|
   --7--2--0--7--4--2--0-----|

Note: The pull of is very quick, just before proceeding chord



1st Solo:

   Guitar 1:

   --0----0----0----0---0--|
   --0----0----0----0---0--|
   --0----0----0----0---0--|
   --9----8----6----7---9--|
   --9----9----6----7--11--|
   --7----7----4----5------|


   Guitar 2:

   --------------------------------------------------------------------------|
   -----7-----7---7-7^9--11^12-11-11/12--12-12---14\12-12\11--11-\9-9-\7--7--|
   --------------------------------------------------------------------------|
   --/9--(9)----9------------------------------------------------------------|
   --------------------------------------------------------------------------|
   --------------------------------------------------------------------------|



2nd Solo:

   Guitar 1:

   --0----0----0----0---0--|
   --0----0----0----0---0--|
   --0----0----0----0---0--|
   --9----8----6----7---9--|
   --9----9----6----7--11--|
   --7----7----4----5------|


   Guitar 2:

   ----------------------------------------------------------------------------------|
   -----7-----7---7-7^9--11^12-11-11/12--12-12/14b-14b-14b-14b-12~-------------------|
   ----------------------------------------------------------------------------------|
   --/9--(9)----9-----------------------------------------------------------13^11^9--|
   ----------------------------------------------------------------11^13^14----------|
   ----------------------------------------------------------------------------------|

   ------------------------7-9-7^9-9-\7-\5---5---4---2--0-|
   --12-------12^11-12/14---------------------------------|
   -----12^14------------------------------5---5---5------|
   -------------------------------------------------------|
   -------------------------------------------------------|
   -------------------------------------------------------|



Breakdown:

   Guitar 1:

   --0----0----0----0---0---0-|
   --0----0----0----0---0---0-|
   --0----0----0----0---0---0-|  ~ Back to Chorus ~
   --9----8----6----7---9--11-|
   --9----9----6----7--11---9-|
   --7----7----4----5---------|



Outro: (Guitar 1 plays Chorus)

   Guitar 2: (Repeated throughout Final Chorus and Outro)

   -------------------------------------------|
   -----11^12-11^12-11^12-----11^12-11^12-----|
   --12--------------------12--------------12-|
   -------------------------------------------|
   -------------------------------------------|
   -------------------------------------------|
Tap to rate this tab
 
# A B C D E F G H I J K L M N O P Q R S T U V W X Y Z