Song name
# A B C D E F G H I J K L M N O P Q R S T U V W X Y Z

Nine Inch Nails - Reptile Live tab

This is how I think Reptile is played live, especially during the "Self Destruct" and 
tours . Not 100% sure, but it sounds pretty accurate.

Tuning: DADGBe

     x: mute
     ~: vibrato
     b: bend
    pm: palm mute
/ or \: slide


Intro:
Gtr I, II, III

e|--------------||
B|--------------||
G|--------------|| 8X
D|-0--------x-x-||
A|-0--------x-x-||
D|-0--------x-x-||


Alternatively, you could have one guitar playing this:

e|--------------||
B|--------------||
G|-7--------x-x-|| 8X
D|-7--------x-x-||
A|-5--------x-x-||
D|-0--------x-x-||


Verse 1:
Gtr I, II, III

(PM all notes)
e|------------------||
B|------------------||
G|------------------||
D|-0-0-00-0-0-0-0-0-||
A|-0-0-00-0-0-0-0-0-||
D|-0-0-00-0-0-0-0-0-||

Chorus:
Gtr I, II, III

e|---------||
B|---------||
G|---------|| 4x
D|-3--/5---||
A|-3--/5---||
D|-3--/5---||


Bridge:
Gtr I, II

(PM all notes)
e|------------------|
B|------------------|
G|------------------|
D|-0-0-00-0-0-0-0-0-|
A|-0-0-00-0-0-0-0-0-|
D|-0-0-00-0-0-0-0-0-|


Weird guitar synth thing arranged for Gtr III
e|-----------------------------------------------|
B|--9~----------9~-------------------------------|
G|-10~---------10~---------7~----------7~--------|
D|-------------------------7~----------7~--------|
A|-----------------------------------------------|
D|-----------------------------------------------|


Verse 2:
Gtr I, II

(PM all notes)
e|------------------|
B|------------------|
G|------------------|
D|-0-0-00-0-0-0-0-0-|
A|-0-0-00-0-0-0-0-0-|
D|-0-0-00-0-0-0-0-0-|

Gtr III
e|----|-------------||
B|----|-------------||
G|----|-------------||
D|-12/|-0-0-3\-8b-00||
A|----|-------------||
D|----|-------------||

Repeat Chorus


Bridge 2:

Gtr I

(PM all notes)
e|------------------||
B|------------------||
G|------------------||
D|-0-0-00-0-0-0-0-0-||
A|-0-0-00-0-0-0-0-0-||
D|-0-0-00-0-0-0-0-0-||

Gtr II

e|-----------------------------------------------||
B|--9~----------9~-------------------------------||
G|-10~---------10~---------7~----------7~--------||
D|-------------------------7~----------7~--------||
A|-----------------------------------------------||
D|-----------------------------------------------||

Gtr III
e|----|-------------||
B|----|-------------||
G|----|-------------||
D|-12/|-0-0-3\-8b-00||
A|----|-------------||
D|----|-------------||


Repeat Chorus till end.

__________________________________________________________________________
My first tab! Let me know how bad I suck!
Tap to rate this tab
# A B C D E F G H I J K L M N O P Q R S T U V W X Y Z