Song name
# A B C D E F G H I J K L M N O P Q R S T U V W X Y Z

Nine Inch Nails - Lights In The Sky tab

Help us improve GuitareTab! Take a short survey!
standard tuning

|-----------------|-----------------|-----------------|-----------------|
|-----------------|-----------------|-----------------|-----------------|
|-5---5---5---5---|-5---5---5---5---|-----------------|-0---0-----------|
|-3---3---3---3---|-3---3---3---3---|-3---3---2---2---|---------3---3---|3x
|-3---3---3---3---|-4---4---4---4---|-0---0---0---0---|-1---1---1---1---|
|-----------------|-----------------|-----------------|-----------------|

|-----------------|-----------------|-----------------|-----------------|
|-----------------|-----------------|-----------------|-----------------|
|-5---5---5---5---|-5---5---5---5---|-----------------|-----------------|
|-3---3---3---3---|-3---3---3---3---|-3---3---2---2---|-3---3---3---3---|
|-3---3---3---3---|-4---4---4---4---|-0---0---0---0---|-----------------|
|-----------------|-----------------|-----------------|-4---4---4---4---|



|-----1-0---------|-----1-0---------|-----1-0---------|-1---1---1---1---|
|-----------------|-----------------|-----------------|-----------------|
|-----------------|-----------------|-----------------|-----------------|
|-----------------|---3-------------|-----------------|-----------------|
|-----------------|-----------------|-----------------|-----------------|
|-1---1---1---1---|-0---0---0---0---|-4---4---4---4---|-3---3---2---2---|

|-1---1-0---------|-----1-0---------|-----------------|-1---1---1---1---|
|-----------------|---------------1-|-----6-5---------|-----------------|
|-----------------|-----------0-1---|-----------------|-----------------|
|---3-------------|---2-------------|-----3-2---------|-----------------|
|-----------------|-----------------|-----------------|-----------------|
|-1---1---1---1---|-0---0---0---0---|-4---4---4---4---|-3---3---2---2---|



|-----------------|-----------------|-----------------|-----------------|
|-----------------|-----------------|-----------------|---------------1-|
|-5---5---5---5---|-5---5---5---5---|-----------------|-0---0-----------|
|-3---3---3---3---|-3---3---3---3---|-3---3---2---2---|---------3---3---|3x
|-3---3---3---3---|-4---4---4---4---|-0---0---0---0---|-1---1---1---1---|
|-----------------|-----------------|-----------------|-----------------|

|-----------------|-----------------|-----------------|-----------------|
|-----------------|-----------------|-----------------|-----------------|
|-5---5---5---5---|-5---5---5---5---|-----------------|-----------------|
|-3---3---3---3---|-3---3---3---3---|-3---3---2---2---|-3---3---3---3---|
|-3---3---3---3---|-4---4---4---4---|-0---0---0---0---|-----------------|
|-----------------|-----------------|-----------------|-4---4---4---4---|


|-----1-0---------|-----1-0---------|-----1-0---------|-1---1---1---1---|
|-----------------|-----------------|-----------------|-----------------|
|-----------------|-----------------|-----------------|-----------------|
|-----------------|---3-------------|-----------------|-----------------|
|-----------------|-----------------|-----------------|-----------------|
|-1---1---1---1---|-0---0---0---0---|-4---4---4---4---|-3---3---2---2---|

|-1---1-0---------|-----1-0---------|-----------------|-1---1---1---1---|
|-----------------|---------------1-|-----6-5-------3-|-----------------|
|-----------0-1-0-|-----------0-1---|-----------0-1---|-----------------|
|---3-------------|---2-------------|-----3-2---------|-----------------|
|-----------------|-----------------|-----------------|-----------------|
|-1---1---1---1---|-0---0---0---0---|-4---4---4---4---|-3---3---2---2---|
Related for Lights In The Sky tab