Song name
# A B C D E F G H I J K L M N O P Q R S T U V W X Y Z

Nine Inch Nails - Leaving Hope tab

Help us improve GuitareTab! Take a short survey!
---------------------------------------------------------------------
 		Leaving Hope by Nine Inch Nails
---------------------------------------------------------------------

Tab for a single acoustic guitar. Standard tuning.



VERSE

|-----------------------------------------------------------------|
|-3p2-------------------------------------------------------------|
|---------------------2---------------2---------------------------|
|-------4---------4p2-------------4p2-------------2---2/4---------|
|-2-------5-------0----2/4----5--------2/4----5---0---------------|
|-------------------------0-------3-------7-----------------------|

|-----------------------------------------------------------------|
|-3p2-------------------------------------------------------3p2p0-|
|---------------------2---------------2---------------------------|
|-------4---------4p2-------------4p2-------------2---2/4---------|
|-2-------5-------0----2/4----5--------2/4----5---0---------------|
|-------------------------0-------3-------7-----------------------|


CHORUS 

|-------------------------------2---------2-------0-2-0-----------|
|-0-------3-----3-2-3-2-----2p3---3-------3-------0-----3---3p2p0-|
|-0-------4-------2-----4---------0-------2-------0---------------|
|-0-------4-------2---------------0-------0-------2---------------|
|-2-------2-------0---------------x---------------2---------------|
|-3-----------------------0-------3---------------0-------0-------|

x2

VERSE 
..


CHORUS 
..


MIDDLE

|-----7-----7---7-----7-----7---7-----7-----7---7-----7-----7---7-|
|---0-----0---------0-----0---0-----0-----0---0-----0-----0---0---|
|-4-----4-----4---4-----4---------4-----4---------4-----4---------|
|-----------------------------------------------------------------|
|-----------------------------------------------------------------|
|-----------------------------------------------------------------|

x2
 
|-----------------------------------------------------------------|
|-0---0---0---0---0---0---0---0---0---0---0---0-------------------|
|-4---4---4---4---6---6---7---7---0---0---0---0---0---0---0---0---|
|-0---0---4---4---7---7---x---x---4---4---4---4---5---5---7---7---|
|-x---x---2---2---0---0---5---5---x---x---5---5---x---x---x---x---|
|-3---3-------------------0---0---3---3-----------0---0---0---0---|

x2

CHORUS 
..


OUTRO

|-------------------------------------------------5---7---5-------|
|-0-------0---0---0---0---0---------------0---0---0---0---0-------|
|---------7---6---11--12--11--------------7---6-------------------|
|-----------------------------------------------------------------|
|-----------------------------------------------------------------|
|-----------------------------------------------------------------|

|-----------------------------------------------------------------|
|-0-------0---0---0---0---0-------------------3-------------------|
|---------7---6---11--12--11--------------2-------0---------------|
|------------------------------------------------------4----------|
|-----------------------------------------------------------------|
|-----------------------------------------------------------------|

|---------10--9---14--15--14--------------10--9---17--19--17------|
|-----0-------------------------------0---------------------------|
|-----------------------------------------------------------------|
|-----------------------------------------------------------------|
|-----------------------------------------------------------------|
|-----------------------------------------------------------------|

|---------10--9---14--15--14--------------12-----p11--------------|
|-----0-------------------------------0---------------------------|
|-----------------------------------------------------------------|
|-----------------------------------------------------------------|
|-----------------------------------------------------------------|
|-----------------------------------------------------------------|
Related for Leaving Hope tab