Song name
# A B C D E F G H I J K L M N O P Q R S T U V W X Y Z

Nine Inch Nails - The Four Of Us Are Dying tab

-------------------------------------------------------------------------------
			     The four of us are dying - Nine Inch Nails
-------------------------------------------------------------------------------
Tabbed by:DanielGarner
Email:daniel_garner@abv.bg

There are lots of sounds in this one and I've transcribed all the ones I heard
and thought are important/fun to play.
Feel free to send me an email if you think something might be incorrect.
Enjoy!




Tuning:EADGBE

at 0:46 comes the guitar and this part is played almost through the whole song
e|---------------------------------------------------------------------------|
B|---------------------------------------------------------------------------|
G|---------------------------------------------------------------------------|
D|-6/8-8-8-8-8-10---3-3-3-3-3-5----------------------------------------------|
A|--------------------------------3-3-3-3-3-5---1-1-1-1-1-1------------------|
E|---------------------------------------------------------------------------|



at 1:57
e|---------------------------------------------------------------------------|
B|---------------------------------------------------------------------------|
G|-10--10--10-8-7-8-7--------------------------------------------------------|
D|---------------------------------------------------------------------------|
A|---------------------------------------------------------------------------|
E|---------------------------------------------------------------------------|



at 2:16 
e|---------------------------------------------------------------------------|
B|---------------------------------------------------------------------------|
G|-8-10-7--------------------------------------------------------------------|
D|---------------------------------------------------------------------------|
A|---------------------------------------------------------------------------|
E|---------------------------------------------------------------------------|



at 2:49
e|---------------------------------------------------------------------------|
B|---------------------------------------------------------------------------|
G|---------------------------------------------------------------------------|
D|-8h11-8--------------------------------------------------------------------|
A|---------------------------------------------------------------------------|
E|---------------------------------------------------------------------------|



at 3:28 - strange sound, so mess with it 
e|-17p-17p-17p---17p-17p-17p-------------------------------------------------|
B|---------------------------------------------------------------------------|
G|---------------------------------------------------------------------------|
D|---------------------------------------------------------------------------|
A|---------------------------------------------------------------------------|
E|---------------------------------------------------------------------------|



at 4:03 (over the main/first guitar line) and through to the end
e|---------------------------------------------------------------------------|
B|---------------------------------------------------------------------------|
G|---------------------------------------------------------------------------|
D|-14-14-14-12-12-12-12-12---14-14-14-12-12-12-12-12-------------------------|
A|---------------------------------------------------------------------------|
E|---------------------------------------------------------------------------|

e|---------------------------------------------------------------------------|
B|---------------------------------------------------------------------------|
G|---------------------------------------------------------------------------|
D|-14-14-14-10-10-10-10-10-8-8-8---------------------------------------------|
A|-------------------------------4-4-4-4-------------------------------------|
E|---------------------------------------6-----------------------------------|



| /  slide up
| \  slide down
| h  hammer-on
| p  pull-off
| ~  vibrato
| +  harmonic
| x  Mute note
===============================================================================
Tap to rate this tab
# A B C D E F G H I J K L M N O P Q R S T U V W X Y Z