Song name
# A B C D E F G H I J K L M N O P Q R S T U V W X Y Z

Nine Inch Nails - Letting You tab

#----------------------------------PLEASE NOTE---------------------------------#
#This file is the author's own work and represents their interpretation of the #
#song. You may only use this file for private study, scholarship, or research. #
#------------------------------------------------------------------------------#

LETTING YOU
As recorded by Nine Inch Nails
(From the 2008 Album THE SLIP)

Transcribed by Mitchell Gardner
	

Words by Trent Reznor Music by Nine Inch Nails

Gtr I (D A D G B E) - 'Gtr. I (Fuzz Dist.)'
Gtr II (D A D G B E) - 'Gtr. II (Dist.)'
Gtr III (D A D G B E) - 'Drone Synth'
Gtr IV (D A D G B E) - 'Gtr. Overdub'

 Intro
  Q=91
  N.C.
 4/4
  Gtr I
  W          W
|----------|------|
|----------|------|
|----------|------|
|----------|------|
|----------|------|
|----------|------|


  TP          TP          TP
  W           W           W
|----------|-----------|--------------------------|
|----------|-----------|--------------------------|
|----------|-----------|--------------------------|
|-9--------|-11--------|-\3-----------------------|
|----------|-----------|--------------------------|
|----------|-----------|--------------------------|
|
| Gtr II
| W           W           W
|----------|-----------|--------------------------|
|----------|-----------|--------------------------|
|----------|-----------|--------------------------|
|----------|-----------|--------------------------|
|----------|-----------|--------------------------|
|----------|-----------|--------------------------|
|
| Gtr III
| W           W           Q      +E  +S  +S  H
|----------|-----------|--------------------------|
|----------|-----------|--------------------------|
|----------|-----------|--9b10===(9)-(9)r(9)-9----|
|----------|-----------|--------------------------|
|----------|-----------|--------------------------|
|----------|-----------|--------------------------|


   TP
   W
|---------------------------------------------|
|---------------------------------------------|
|---------------------------------------------|
|-15------------------------------------------|
|---------------------------------------------|
|---------------------------------------------|
|
|  E   S  S  S  S  S  S  S  S  S  S  S  S  E
|---------------------------------------------|
|---------------------------------------------|
|---------------------------------------------|
|-15--15-15-15-15-15-15-15-15-15-15-15-15-15\-|
|---------------------------------------------|
|---------------------------------------------|
|
| +W
|---------------------------------------------|
|---------------------------------------------|
|-(9)-----------------------------------------|
|---------------------------------------------|
|---------------------------------------------|
|---------------------------------------------|


   TP
   W
|---------------------------------------------|
|---------------------------------------------|
|---------------------------------------------|
|--9------------------------------------------|
|---------------------------------------------|
|---------------------------------------------|
|
|  S      S S S  S  S  S   S  S S S S S S S S
|---------------------------------------------|
|---------------------------------------------|
|---------------------------------------------|
|--9------9-9-9--9--9--9---9--9-9-9-9-9-9-9-9-|
|---------------------------------------------|
|---------------------------------------------|
|
| +Q            +E    +S  +S  H
|---------------------------------------------|
|---------------------------------------------|
|-(9)b10========(9)---(9)r(9)-9---------------|
|---------------------------------------------|
|---------------------------------------------|
|---------------------------------------------|


   TP
   W
|--------------------------------------------------|
|--------------------------------------------------|
|--------------------------------------------------|
|-11-----------------------------------------------|
|--------------------------------------------------|
|--------------------------------------------------|
|
|  S   S  S  S  S  S  S  S  S  S  S  S  S  S  S  S
|--------------------------------------------------|
|--------------------------------------------------|
|--------------------------------------------------|
|-11--11-11-11-11-11-11-11-11-11-11-11-11-11-11-11-|
|--------------------------------------------------|
|--------------------------------------------------|
|
| +W
|--------------------------------------------------|
|--------------------------------------------------|
|-(9)----------------------------------------------|
|--------------------------------------------------|
|--------------------------------------------------|
|--------------------------------------------------|


   TP
   W
|---------------------------------------------|
|---------------------------------------------|
|---------------------------------------------|
|-\3------------------------------------------|
|---------------------------------------------|
|---------------------------------------------|
|
|  S      S S S  S  S  S   S  S S S S S S S S
|---------------------------------------------|
|---------------------------------------------|
|---------------------------------------------|
|--3------3-3-3--3--3--3---3--3-3-3-3-3-3-3-3-|
|---------------------------------------------|
|---------------------------------------------|
|
| +Q            +E    +S  +S  H
|---------------------------------------------|
|---------------------------------------------|
|-(9)b10========(9)---(9)r(9)-9---------------|
|---------------------------------------------|
|---------------------------------------------|
|---------------------------------------------|


   TP
   W
|--------------------------------------------||
|--------------------------------------------||
|--------------------------------------------||
|-15-----------------------------------------||
|--------------------------------------------||
|--------------------------------------------||
|
|  S   S  S  S  S  S  S  S  S  S  S  S  Q
|--------------------------------------------||
|--------------------------------------------||
|--------------------------------------------||
|-15--15-15-15-15-15-15-15-15-15-15-15-15\---||
|--------------------------------------------||
|--------------------------------------------||
|
| +W
|--------------------------------------------||
|--------------------------------------------||
|-(9)----------------------------------------||
|--------------------------------------------||
|--------------------------------------------||
|--------------------------------------------||


 Verse I
  N.C.
  S E E. E  E +S  E S S S   S E E. E  E +S  E S S S
|-------------------------|-------------------------|
|-------------------------|-------------------------|
|-------------------------|-------------------------|
|-6s4-4--4\---------6-----|-6s4-4--4\---------6-----|
|-------------------------|-------------------------|
|-----------6-(6)-6---4s6-|-----------6-(6)-6---4s6-|


  S E E. E  E +S  E S S S   S E E. E  E +S  E S S S
|-------------------------|---------------------------|
|-------------------------|---------------------------|
|-------------------------|---------------------------|
|-6s4-4--4\---------6-----|-6s4-4--4\---------6-------|
|-------------------------|---------------------------|
|-----------6-(6)-6---4s6-|-----------6-(6)-6---4s6---|


  S E E. E  E +S  E S S S   S E E. E  E +S  E S S S
|-------------------------|-------------------------|
|-------------------------|-------------------------|
|-------------------------|-------------------------|
|-6s4-4--4\---------6-----|-6s4-4--4\---------6-----|
|-------------------------|-------------------------|
|-----------6-(6)-6---4s6-|-----------6-(6)-6---4s6-|


                                                Gtrs I, II
  S E E. E  E +S  E S S S   S E E. E  E +S  E S e
|-------------------------|-----------------------||
|-------------------------|-----------------------||
|-------------------------|-----------------------||
|-6s4-4--4\---------6-----|-6s4-4--4\---------6---||
|-------------------------|---------------------2-||
|-----------6-(6)-6---4s6-|-----------6-(6)-6-----||


 Chorus
  N.C.
  E S E S E E. E. e   E S E S E E. E. e
|-------------------|-------------------|
|-------------------|-------------------|
|-------------------|-------------------|
|---4h6-4h6---------|---4h6-4h6---------|
|-4---------------2-|-4---------------2-|
|-----------6--6----|-----------6--6----|


  E S E S E E. E. e   E S E S E E. E. e
|-------------------|-------------------|
|-------------------|-------------------|
|-------------------|-------------------|
|---4h6-4h6---------|---4h6-4h6---------|
|-4---------------2-|-4---------------2-|
|-----------6--6----|-----------6--6----|


  E S E S E E. E. e   E S E S E E. E. e
|-------------------|-------------------|
|-------------------|-------------------|
|-------------------|-------------------|
|---4h6-4h6---------|---4h6-4h6---------|
|-4---------------2-|-4---------------2-|
|-----------6--6----|-----------6--6----|


  E S E S E E. E. e   E S E S E E. E. E
|-------------------|-------------------||
|-------------------|-------------------||
|-------------------|-------------------||
|---4h6-4h6---------|---4h6-4h6---------||
|-4---------------2-|-4-----------------||
|-----------6--6----|-----------6--6----||


   Break
    N.C.
    Gtr I
    W                                3x
||-----------------------------------||
||o---------------------------------o||
||-----------------------------------||
||-----------------------------------||
||o---------------------------------o||
||-----------------------------------||
|
|   Gtr II
|   S S S S S S S S S S S S S S S S  3x
||-----------------------------------||
||o---------------------------------o||
||-----------------------------------||
||--9-9-9-9-9-9-9-9-9-9-9-9-9-9-9-9--||
||o---------------------------------o||
||-----------------------------------||


   TP
   W
|--------------------------------------------------|
|--------------------------------------------------|
|--------------------------------------------------|
|-11-----------------------------------------------|
|--------------------------------------------------|
|--------------------------------------------------|
|
|  S  S  S  S  S  S  S  S  S  S  S  S  S  S  S  S
|--------------------------------------------------|
|--------------------------------------------------|
|--------------------------------------------------|
|-11-11-11-11-11-11-11-11-11-11-11-11-11-11-11-11--|
|--------------------------------------------------|
|--------------------------------------------------|


   TP
   W
|----------------------------------|
|----------------------------------|
|----------------------------------|
|-\3-------------------------------|
|----------------------------------|
|----------------------------------|
|
|  S S S S S S S S S S S S S S S S
|----------------------------------|
|----------------------------------|
|----------------------------------|
|--3-3-3-3-3-3-3-3-3-3-3-3-3-3-3-3-|
|----------------------------------|
|----------------------------------|


   TP
   W
|-------------------------------------------||
|-------------------------------------------||
|-------------------------------------------||
|-15----------------------------------------||
|-------------------------------------------||
|-------------------------------------------||
|
|  S  S  S  S  S  S  S  S  S  S  S  S  Q
|-------------------------------------------||
|-------------------------------------------||
|-------------------------------------------||
|-15-15-15-15-15-15-15-15-15-15-15-15-15\---||
|-------------------------------------------||
|-------------------------------------------||


   Verse II
    C#B5             G#5/D#  N.C.
    S E   E. E       E +S  E S S S
||---------------------------------|
||o--------------------------------|
||---------------------------------|
||--6s4---4--4\--------------6-----|
||o--------------------------------|
||-------------------6-(6)-6---4s6-|
|
|   S S S E. S   +S  E +S  E S e
||---------------------------------|
||o-9s7-7-7--7b9-(7)---------------|
||--6s4--------------8-(8)-8-x-----|
||-------------------6-(6)-6-x-4---|
||o------------------6-(6)-6-------|
||---------------------------------|


  C#B5             G#5/D#  N.C.    C#B5             G#5/D#  N.C.
  S E   E. E       E +S  E S S S   S E   E. E       E +S  E S S S
|--------------------------------|----------------------------------||
|--------------------------------|---------------------------------o||
|--------------------------------|----------------------------------||
|-6s4---4--4\--------------6-----|-6s4---4--4\--------------6-------||
|--------------------------------|---------------------------------o||
|------------------6-(6)-6---4s6-|------------------6-(6)-6---4s6---||
|
| S S S E. S   +S  E +S  E S e     S S S E. S   +S  E +S  E S e
|--------------------------------|----------------------------------||
|-9s7-7-7--7b9-(7)---------------|-9s7-7-7--7b9-(7)----------------o||
|-6s4--------------8-(8)-8-x-----|-6s4--------------8-(8)-8-x-------||
|------------------6-(6)-6-x-4---|------------------6-(6)-6-x-4-----||
|------------------6-(6)-6-------|------------------6-(6)-6--------o||
|--------------------------------|----------------------------------||


  C#B5             G#5/D#  N.C.    C#B5             G#5/D#  N.C.
  S E   E. E       E +S  E S S S   S E   E. E       E +S  E S e
|--------------------------------|------------------------------||
|--------------------------------|------------------------------||
|--------------------------------|------------------------------||
|-6s4---4--4\--------------6-----|-6s4---4--4\--------------6---||
|--------------------------------|----------------------------2-||
|------------------6-(6)-6---4s6-|------------------6-(6)-6-----||
|
| S S S E. S   +S  E +S  E S e     S S S E. S   +S  E +S  E S e
|--------------------------------|------------------------------||
|-9s7-7-7--7b9-(7)---------------|-9s7-7-7--7b9-(7)-------------||
|-6s4--------------8-(8)-8-x-----|-6s4--------------8-(8)-8-x---||
|------------------6-(6)-6-x-4---|------------------6-(6)-6-x---||
|------------------6-(6)-6-------|------------------6-(6)-6---2-||
|--------------------------------|------------------------------||


 Chorus
  N.C.
  Gtrs I, II
  E S E S E E. E. e   E S E S E E. E. e
|-------------------|-------------------|
|-------------------|-------------------|
|-------------------|-------------------|
|---4h6-4h6---------|---4h6-4h6---------|
|-4---------------2-|-4---------------2-|
|-----------6--6----|-----------6--6----|


  E S E S E E. E. e   E S E S E E. E. e
|-------------------|-------------------|
|-------------------|-------------------|
|-------------------|-------------------|
|---4h6-4h6---------|---4h6-4h6---------|
|-4---------------2-|-4---------------2-|
|-----------6--6----|-----------6--6----|


  E S E S E E. E. e   E S E S E E. E. e
|-------------------|-------------------|
|-------------------|-------------------|
|-------------------|-------------------|
|---4h6-4h6---------|---4h6-4h6---------|
|-4---------------2-|-4---------------2-|
|-----------6--6----|-----------6--6----|


  E S E S E E. E. e   E S E S E E. E. E
|-------------------|-------------------||
|-------------------|-------------------||
|-------------------|-------------------||
|---4h6-4h6---------|---4h6-4h6---------||
|-4---------------2-|-4-----------------||
|-----------6--6----|-----------6--6----||


 Verse III
  N.C.
  Gtr I
                               ~       ~~~~      ~~~~~~      ~~~~      ~
  W          E S Q  E. E E E   E S E S E E S E S E   E S E S E E S E S E
|----------|-----------------|---------------------|----------------------|
|----------|-----------------|---------------------|----------------------|
|----------|-----------------|---------------------|----------------------|
|----------|-6-6-6--6--6-6-4-|---------------------|----------------------|
|----------|-x-x-x--x--x-x-x-|---------------------|----------------------|
|----------|-6-6-6--6--6-6-4-|-6-6-6-6-4-6-6-6-6-4-|-6-6-6-6-4-6-6-6-6-4--|
|
| Gtr II
|                              ~       ~~~~      ~~~~~~      ~~~~      ~
| W          W                 E S E S E E S E S E   E S E S E E S E S E
|----------|-----------------|---------------------|----------------------|
|----------|-----------------|---------------------|----------------------|
|----------|-----------------|---------------------|----------------------|
|----------|-----------------|---------------------|----------------------|
|----------|-----------------|---------------------|----------------------|
|----------|-----------------|-6-6-6-6-4-6-6-6-6-4-|-6-6-6-6-4-6-6-6-6-4--|


  W          W          S E E. E  E +S  E S S S
|----------|----------|-------------------------|
|----------|----------|-------------------------|
|----------|----------|-------------------------|
|----------|----------|-6s4-4--4\---------6-----|
|----------|----------|-------------------------|
|----------|----------|-----------6-(6)-6---4s6-|
|
| W          W          W
|----------|----------|-------------------------|
|----------|----------|-------------------------|
|----------|----------|-------------------------|
|----------|----------|-------------------------|
|----------|----------|-------------------------|
|----------|----------|-------------------------|


  C#B5             G#5/D#  N.C.
  S E   E. E       E +S  E S e
|------------------------------||
|------------------------------||
|------------------------------||
|-6s4---4--4\--------------6---||
|----------------------------2-||
|------------------6-(6)-6-----||
|
| S S S E. S   +S  E +S  E S e
|------------------------------||
|-9s7-7-7--7b9-(7)-------------||
|-6s4--------------8-(8)-8-x---||
|------------------6-(6)-6-x---||
|------------------6-(6)-6---2-||
|------------------------------||


 Chorus
  N.C.
  Gtrs I, II
  E S E S E E. E. e   E S E S E E. E. e
|-------------------|-------------------|
|-------------------|-------------------|
|-------------------|-------------------|
|---4h6-4h6---------|---4h6-4h6---------|
|-4---------------2-|-4---------------2-|
|-----------6--6----|-----------6--6----|


  E S E S E E. E. e   E S E S E E. E. e
|-------------------|-------------------|
|-------------------|-------------------|
|-------------------|-------------------|
|---4h6-4h6---------|---4h6-4h6---------|
|-4---------------2-|-4---------------2-|
|-----------6--6----|-----------6--6----|


  E S E S E E. E. e   E S E S E E. E. e
|-------------------|-------------------|
|-------------------|-------------------|
|-------------------|-------------------|
|---4h6-4h6---------|---4h6-4h6---------|
|-4---------------2-|-4---------------2-|
|-----------6--6----|-----------6--6----|
|
| Gtr III
| W                   W
|-------------------|-------------------|
|-------------------|-------------------|
|-------------------|-------------------|
|-------------------|-------------------|
|-------------------|-------------------|
|-------------------|-------------------|


  E     S E     S  E      E. E. e     E  S E S E E. E. E
|----------------------------------|-----------------------||
|----------------------------------|-----------------------||
|----------------------------------|-----------------------||
|-------4h6-----4h=6---------------|-----4h6-4h6-----------||
|-4-----------------------------2--|--4--------------------||
|-------------------------6--6-----|-------------6--6------||
|
| Q         +E    +S  +S  H          +W
|----------------------------------|-----------------------||
|----------------------------------|-----------------------||
|-9b10======(9)---(9)r(9)-9--------|-(9)-------------------||
|----------------------------------|-----------------------||
|----------------------------------|-----------------------||
|----------------------------------|-----------------------||


   Outro
    N.C.
    Gtr I
     TP                          TP
     W                           W
||----------------------------|------------|
||o---------------------------|------------|
||----------------------------|------------|
||---9------------------------|-11---------|
||o---------------------------|------------|
||----------------------------|------------|
|
|   Gtr III
|   +Q       +E  +S  +S  H      +W
||----------------------------|------------|
||o---------------------------|------------|
||--(9)b10===(9)-(9)r(9)-9----|-(9)--------|
||----------------------------|------------|
||o---------------------------|------------|
||----------------------------|------------|


   TP                          TP
   W                           W
|---------------------------|---------||
|---------------------------|--------o||
|---------------------------|---------||
|-\3------------------------|-15------||
|---------------------------|--------o||
|---------------------------|---------||
|
| +Q       +E  +S  +S  H      +W
|---------------------------|---------||
|---------------------------|--------o||
|-(9)b10===(9)-(9)r(9)-9----|-(9)-----||
|---------------------------|---------||
|---------------------------|--------o||
|---------------------------|---------||


    Gtr II
     S      S  S  S  S  S  S   S  S S  S  S  S  S S S
     |      |  |  |  |  |  |   |  | |  |  |  |  | | |
     o      /  /  /  /  /  /   /  / /  /  /  /  / / /

    Gtr I
     TP
     W
||----------------------------------------------------|
||o---------------------------------------------------|
||----------------------------------------------------|
||---9------------------------------------------------|
||o---------------------------------------------------|
||----------------------------------------------------|
|
|   Gtr III
|   +Q              +E    +S  +S  H
||----------------------------------------------------|
||o---------------------------------------------------|
||--(9)b10==========(9)---(9)r(9)-9-------------------|
||----------------------------------------------------|
||o---------------------------------------------------|
||----------------------------------------------------|
|
|   Gtr IV
|    E        +S  S +S  S  S   S  E   +S  S +S  S S S
||----------------4-(4)s6-----------------4-(4)s6-----|
||o---------------------------------------------------|
||---3--------(3)----------1h==3--3---(3)---------1h3-|
||----------------------------------------------------|
||o---------------------------------------------------|
||----------------------------------------------------|


   S  S  S  S  S  S S S S S  S  S  S  S S S
   |  |  |  |  |  | | | | |  |  |  |  | | |
   o  /  /  /  /  / / / / /  /  /  /  / / /

   TP
   W
|--------------------------------------------|
|--------------------------------------------|
|--------------------------------------------|
|-11-----------------------------------------|
|--------------------------------------------|
|--------------------------------------------|
|
| +W
|--------------------------------------------|
|--------------------------------------------|
|-(9)----------------------------------------|
|--------------------------------------------|
|--------------------------------------------|
|--------------------------------------------|
|
|  E    +S  S +S  S S S E   +S  S +S  S S S
|-----------4-(4)s6-------------4-(4)s6------|
|--------------------------------------------|
|--3----(3)---------1h3-3---(3)---------1h3--|
|--------------------------------------------|
|--------------------------------------------|
|--------------------------------------------|


  1.
   S      S  S  S  S  S  S   S  S S  S  S  S  S S S
   |      |  |  |  |  |  |   |  | |  |  |  |  | | |
   o      /  /  /  /  /  /   /  / /  /  /  /  / / /

   TP
   W
|---------------------------------------------------|
|---------------------------------------------------|
|---------------------------------------------------|
|-\3------------------------------------------------|
|---------------------------------------------------|
|---------------------------------------------------|
|
| +Q              +E    +S  +S  H
|---------------------------------------------------|
|---------------------------------------------------|
|-(9)b10==========(9)---(9)r(9)-9-------------------|
|---------------------------------------------------|
|---------------------------------------------------|
|---------------------------------------------------|
|
|  E        +S  S +S  S  S   S  E   +S  S +S  S S S
|---------------4-(4)s6-----------------4-(4)s6-----|
|---------------------------------------------------|
|--3--------(3)----------1h==3--3---(3)---------1h3-|
|---------------------------------------------------|
|---------------------------------------------------|
|---------------------------------------------------|


   S  S  S  S  S  S S S S S  S  S  S  S S S
   |  |  |  |  |  | | | | |  |  |  |  | | |
   o  /  /  /  /  / / / / /  /  /  /  / / /

   TP
   W
|--------------------------------------------||
|-------------------------------------------o||
|--------------------------------------------||
|-15-----------------------------------------||
|-------------------------------------------o||
|--------------------------------------------||
|
| +W
|--------------------------------------------||
|-------------------------------------------o||
|-(9)----------------------------------------||
|--------------------------------------------||
|-------------------------------------------o||
|--------------------------------------------||
|
|  E    +S  S +S  S S S E   +S  S +S  S S S
|-----------4-(4)s6-------------4-(4)s6------||
|-------------------------------------------o||
|--3----(3)---------1h3-3---(3)---------1h3--||
|--------------------------------------------||
|-------------------------------------------o||
|--------------------------------------------||


  2.
  Gtr II
   S      S  S  S  S  S  S   S  S S  S  S  S  S S S    S   S  S   S  S   S  S  S  S  S  S   S  S   S  S  S
|---------------------------------------------------|------------------------------------------------------|
|---------------------------------------------------|------------------------------------------------------|
|---------------------------------------------------|------------------------------------------------------|
|--3------3--3--3--3--3--3---3--3-3--3--3--3--3-3-3-|-15--15-15--15-15--15-15-15-15-15-15--15-15--15-15-15-|
|---------------------------------------------------|------------------------------------------------------|
|---------------------------------------------------|------------------------------------------------------|
|
| +Q              +E    +S  +S  H                     +W
|---------------------------------------------------|------------------------------------------------------|
|---------------------------------------------------|------------------------------------------------------|
|-(9)b10==========(9)---(9)r(9)-9-------------------|-(9)--------------------------------------------------|
|---------------------------------------------------|------------------------------------------------------|
|---------------------------------------------------|------------------------------------------------------|
|---------------------------------------------------|------------------------------------------------------|
|
|  E        +S  S +S  S  S   S  E   +S  S +S  S S S    E     +S   S +S   S  S  S  E    +S   S +S   S  S  S
|---------------4-(4)s6-----------------4-(4)s6-----|-------------4-(4)s=6------------------4-(4)s=6-------|
|---------------------------------------------------|------------------------------------------------------|
|--3--------(3)----------1h==3--3---(3)---------1h3-|--3-----(3)------------1h=3--3----(3)------------1h=3-|
|---------------------------------------------------|------------------------------------------------------|
|---------------------------------------------------|------------------------------------------------------|
|---------------------------------------------------|------------------------------------------------------|


   S   S  S   S  S   S  S  S  S  S  S   S  S   S  S  S
|--------------------------------------------------------|
|--------------------------------------------------------|
|--------------------------------------------------------|
|-15--15-15--15-15--15-15-15-15-15-15--15-15--15-15-15---|
|--------------------------------------------------------|
|--------------------------------------------------------|
|
| +W
|--------------------------------------------------------|
|--------------------------------------------------------|
|-(9)----------------------------------------------------|
|--------------------------------------------------------|
|--------------------------------------------------------|
|--------------------------------------------------------|
|
|  E     +S   S +S   S  S  S  E    +S   S +S   S  S  S
|-------------4-(4)s=6------------------4-(4)s=6---------|
|--------------------------------------------------------|
|--3-----(3)------------1h=3--3----(3)------------1h=3---|
|--------------------------------------------------------|
|--------------------------------------------------------|
|--------------------------------------------------------|


     S  S  S   S  S   S  S  S  S  S  S   S  S   S  S  S
||------------------------------------------------------|
||o-----------------------------------------------------|
||------------------------------------------------------|
||--15-15-15--15-15--15-15-15-15-15-15--15-15--15-15-15-|
||o-----------------------------------------------------|
||------------------------------------------------------|
|
|    W
||------------------------------------------------------|
||o-----------------------------------------------------|
||---9--------------------------------------------------|
||------------------------------------------------------|
||o-----------------------------------------------------|
||------------------------------------------------------|
|
|    E    +S   S +S   S  S  S  E    +S   S +S   S  S  S
||-------------4-(4)s=6------------------4-(4)s=6-------|
||o-----------------------------------------------------|
||---3----(3)------------1h=3--3----(3)------------1h=3-|
||------------------------------------------------------|
||o-----------------------------------------------------|
||------------------------------------------------------|


   S   S  S   S  S   S  S  S  S  S  S   S  S   S  S  S
|--------------------------------------------------------||
|-------------------------------------------------------o||
|--------------------------------------------------------||
|-15--15-15--15-15--15-15-15-15-15-15--15-15--15-15-15---||
|-------------------------------------------------------o||
|--------------------------------------------------------||
|
| +H                          H
|--------------------------------------------------------||
|-------------------------------------------------------o||
|-(9)----------------------------------------------------||
|--------------------------------------------------------||
|-------------------------------------------------------o||
|--------------------------------------------------------||
|
|  E     +S   S +S   S  S  S  E    +S   S +S   S  S  S
|-------------4-(4)s=6------------------4-(4)s=6---------||
|-------------------------------------------------------o||
|--3-----(3)------------1h=3--3----(3)------------1h=3---||
|--------------------------------------------------------||
|-------------------------------------------------------o||
|--------------------------------------------------------||


   S  S  S   S  S   S  S  S  S  S  S   S  S   S  S  S
|-----------------------------------------------------|
|-----------------------------------------------------|
|-----------------------------------------------------|
|-15-15-15--15-15--15-15-15-15-15-15--15-15--15-15-15-|
|-----------------------------------------------------|
|-----------------------------------------------------|
|
|  W
|-----------------------------------------------------|
|-----------------------------------------------------|
|--9--------------------------------------------------|
|-----------------------------------------------------|
|-----------------------------------------------------|
|-----------------------------------------------------|
|
|  E    +S   S +S   S  S  S  E    +S   S +S   S  S  S
|------------4-(4)s=6------------------4-(4)s=6-------|
|-----------------------------------------------------|
|--3----(3)------------1h=3--3----(3)------------1h=3-|
|-----------------------------------------------------|
|-----------------------------------------------------|
|-----------------------------------------------------|


   S   S  S   S  S   S  S  S  S  S  S   e E.
|--------------------------------------------*|
|--------------------------------------------*|
|--------------------------------------------*|
|-15--15-15--15-15--15-15-15-15-15-15--15----*|
|--------------------------------------------*|
|--------------------------------------------*|
|
| +H                          H
|--------------------------------------------*|
|--------------------------------------------*|
|-(9)----------------------------------------*|
|--------------------------------------------*|
|--------------------------------------------*|
|--------------------------------------------*|
|
|  E     +S   S +S   S  S  S  E    +S   e E.
|-------------4-(4)s=6------------------4----*|
|--------------------------------------------*|
|--3-----(3)------------1h=3--3----(3)-------*|
|--------------------------------------------*|
|--------------------------------------------*|
|--------------------------------------------*|



Duration Legend
---------------
W - whole; H - half; Q - quarter; E - 8th; S - 16th; T - 32nd; X - 64th; a - acciaccatura
+ - note tied to previous; . - note dotted; .. - note double dotted
Uncapitalized letters represent notes that are staccato (1/2 duration)
Irregular groupings are notated above the duration line
Duration letters will always appear directly above the note/fret number it represents the
duration for.  Duration letters with no fret number below them represent rests.  Multi-
bar rests are notated in the form Wxn, where n is the number of bars to rest for.  Low
melody durations appear below the staff

Tablature Legend
----------------
 h   - hammer-on
 p   - pull-off
 b   - bend
 pb  - pre-bend
 r   - bend release (if no number after the r, then release immediately)
 /\  - slide into or out of (from/to "nowhere")
 s   - legato slide
 S   - shift slide
 - natural harmonic
[n]  - artificial harmonic
n(n) - tapped harmonic
 ~   - vibrato
 tr  - trill
 T   - tap
 TP  - trem. picking
 PM  - palm muting
\n/  - tremolo bar dip; n = amount to dip
 \n  - tremolo bar down
 n/  - tremolo bar up
/n\  - tremolo bar inverted dip
 =   - hold bend; also acts as connecting device for hammers/pulls
 <> - volume swell (louder/softer)
 x   - on rhythm slash represents muted slash
 o   - on rhythm slash represents single note slash

Misc Legend
-----------
 |  - bar
||  - double bar
||o - repeat start
o|| - repeat end
*|  - double bar (ending)
 :  - bar (freetime)
 $  - Segno
 &  - Coda
Tempo markers -  = BPM(8/16=s8/s16), where s8 = swing 8ths, s16 = swing 16ths

Tap to rate this tab
# A B C D E F G H I J K L M N O P Q R S T U V W X Y Z