Song name
# A B C D E F G H I J K L M N O P Q R S T U V W X Y Z

Nine Inch Nails - 17 Ghosts tab

Tabbed by: insearchofthe

My first tab. Sounds okay to me, nothing special.
Listen to song for length and rhythm. Enjoy!

e|-------------------------------------------------------------------------------------|
B|-------------------------------------------------------------------------------------|
G|-------------------------------------------------------------------------------------|
D|--8-8-8-8-----6-6-6-6----------------------------------------------------------------|
A|-------------------------------------------------------------------------------------|
E|--6-6-6-6-----4-4-4-4----------------------------------------------------------------|


e|--------------------------------------|
B|--------------------------------------|
G|--------------------------------------|
D|--8-8-8-8------6-6-6-6----4-4-4----3--|
A|--------------------------------------|
E|--6-6-6-6------4-4-4-4----2-2-2----1--|
Tap to rate this tab
# A B C D E F G H I J K L M N O P Q R S T U V W X Y Z