Song name
# A B C D E F G H I J K L M N O P Q R S T U V W X Y Z

Nine Inch Nails - Something I Can Never Have tab

#----------------------------------PLEASE NOTE---------------------------------#
#This file is the author's own work and represents their interpretation of the #
#song. You may only use this file for private study, scholarship, or research. #
#------------------------------------------------------------------------------#

SOMETHING I CAN NEVER HAVE
As recorded by Nine Inch Nails
(From the 2004 Album STILL)

Transcribed by scott666
	

Words and Music by Trent Reznor
Arranged by scott666

Gtr I (E A D G B E) - 'Right Hands'
Gtr II (E A D G B E) - 'Left Hand'
Gtr III (E A D G B E) - 'Acoustic'

 Intro
  Q=100
  N.C.
 4/4
  Gtr I
  E E +E  E +E  E +E  E   +E  E +E  E +E  E E E
|---3-(3)-3-(3)-3-(3)-3-|-(3)-3-(3)-3-(3)-3-4-3-|
|-1---------------------|-----------------------|
|-----------------------|-----------------------|
|-----------------------|-----------------------|
|-----------------------|-----------------------|
|-----------------------|-----------------------|


  E E +E  E +E  E +E  E   +E  E +E  E +E  E E E
|---3-(3)-3-(3)-3-(3)-3-|-(3)-3-(3)-3-(3)-3-4-3-|
|-1---------------------|-----------------------|
|-----------------------|-----------------------|
|-----------------------|-----------------------|
|-----------------------|-----------------------|
|-----------------------|-----------------------|


  C5
  E E +E  E +E  E +E  E   +E  E +E  E +E  E E E
|---3-(3)-3-(3)-3-(3)-3-|-(3)-3-(3)-3-(3)-3-4-3-|
|-1---------------------|-----------------------|
|-----------------------|-----------------------|
|-----------------------|-----------------------|
|-----------------------|-----------------------|
|-----------------------|-----------------------|
|
| Gtr II
| W                       +W
|-----------------------|-----------------------|
|-----------------------|-----------------------|
|-----------------------|-----------------------|
|-----------------------|-----------------------|
|-3---------------------|-(3)-------------------|
|-----------------------|-----------------------|


  C                       F5/C
  E E +E  E +E  E +E  E   +E  E +E  E +E  E E E
|---3-(3)-3-(3)-3-(3)-3-|-(3)-3-(3)-3-(3)-3-4-3--|
|-1---------------------|------------------------|
|-----------------------|------------------------|
|-----------------------|------------------------|
|-----------------------|------------------------|
|-----------------------|------------------------|
|
| W                        W
|-----------------------|------------------------|
|-----------------------|------------------------|
|-----------------------|------------------------|
|-2---------------------|--3---------------------|
|-3---------------------|------------------------|
|-----------------------|------------------------|


  C5
  E E +E  E +E  E +E  E   +E  E +E  E +E  E E E
|---3-(3)-3-(3)-3-(3)-3-|-(3)-3-(3)-3-(3)-3-4-3-|
|-1---------------------|-----------------------|
|-----------------------|-----------------------|
|-----------------------|-----------------------|
|-----------------------|-----------------------|
|-----------------------|-----------------------|
|
| Gtr II
| W                       +W
|-----------------------|-----------------------|
|-----------------------|-----------------------|
|-----------------------|-----------------------|
|-5---------------------|-(5)-------------------|
|-3---------------------|-(3)-------------------|
|-----------------------|-----------------------|
|
| Gtr III
| W                        W
|-----------------------|-----------------------|
|-----------------------|-----------------------|
|-----------------------|-----------------------|
|-----------------------|-----------------------|
|-----------------------|-----------------------|
|-----------------------|-----------------------|


  C                       F5/C
  E E +E  E +E  E +E  E   +E   E +E  E +E  E E E
|---3-(3)-3-(3)-3-(3)-3-|-(3)--3-(3)-3-(3)-3-4-3--|
|-1---------------------|-------------------------|
|-----------------------|-------------------------|
|-----------------------|-------------------------|
|-----------------------|-------------------------|
|-----------------------|-------------------------|
|
| W                        W
|-----------------------|-------------------------|
|-----------------------|-------------------------|
|-----------------------|-------------------------|
|-2---------------------|--3----------------------|
|-3---------------------|-(3)---------------------|
|-----------------------|-------------------------|
|
| W                        H..                 E
|-----------------------|-------------------------|
|-----------------------|-------------------------|
|-----------------------|-------------------------|
|-----------------------|----------------------3--|
|-----------------------|-------------------------|
|-----------------------|-------------------------|


    C5
    E E +E  E +E  E +E  E   +E  E +E  E +E   E  E E
||----3-(3)-3-(3)-3-(3)-3-|-(3)-3-(3)-3-(3)--3--4-3-|
||o-1---------------------|-------------------------|
||------------------------|-------------------------|
||------------------------|-------------------------|
||o-----------------------|-------------------------|
||------------------------|-------------------------|
|
|   W                       +W
||------------------------|-------------------------|
||o-----------------------|-------------------------|
||------------------------|-------------------------|
||--5---------------------|-(5)---------------------|
||o-3---------------------|-(3)---------------------|
||------------------------|-------------------------|
|
|   Gtr III
|   Q   +E  E +Q     Q      +Q    +E  E  E  +E  E E
||------------------------|-------------------------|
||o-1---(1)-3-(3)---------|---------------------6-5-|
||-------------------3----|-(3)---(3)---------------|
||------------------------|-----------3--5--(5)-----|
||o-----------------------|-------------------------|
||------------------------|-------------------------|


  C                         F5/C
   E  E +E  E +E  E +E  E   +E  E +E  E +E  E E E
|-----3-(3)-3-(3)-3-(3)-3-|-(3)-3-(3)-3-(3)-3-4-3--||
|--1----------------------|-----------------------o||
|-------------------------|------------------------||
|-------------------------|------------------------||
|-------------------------|-----------------------o||
|-------------------------|------------------------||
|
|  W                         W
|-------------------------|------------------------||
|-------------------------|-----------------------o||
|-------------------------|------------------------||
|--2----------------------|--3---------------------||
|--3----------------------|-(3)-------------------o||
|-------------------------|------------------------||
|
| +W                         W
|-------------------------|------------------------||
|-(5)---------------------|-----------------------o||
|-------------------------|------------------------||
|-------------------------|------------------------||
|-------------------------|-----------------------o||
|-------------------------|------------------------||


   Verse
    C5
    E E +E  E +E  E +E  E   +E  E +E  E +E  E E E
||----3-(3)-3-(3)-3-(3)-3-|-(3)-3-(3)-3-(3)-3-4-3-|
||o-1---------------------|-----------------------|
||------------------------|-----------------------|
||------------------------|-----------------------|
||o-----------------------|-----------------------|
||------------------------|-----------------------|
|
|   W                       +W
||------------------------|-----------------------|
||o-----------------------|-----------------------|
||------------------------|-----------------------|
||--5---------------------|-(5)-------------------|
||o-3---------------------|-(3)-------------------|
||------------------------|-----------------------|


  C                       F5/C
  E E +E  E +E  E +E  E   +E  E +E  E +E  E E E  4x
|---3-(3)-3-(3)-3-(3)-3-|-(3)-3-(3)-3-(3)-3-4-3--||
|-1---------------------|-----------------------o||
|-----------------------|------------------------||
|-----------------------|------------------------||
|-----------------------|-----------------------o||
|-----------------------|------------------------||
|
| W                        W                     4x
|-----------------------|------------------------||
|-----------------------|-----------------------o||
|-----------------------|------------------------||
|-2---------------------|--3---------------------||
|-3---------------------|-(3)-------------------o||
|-----------------------|------------------------||


 Bridge
  C5/G
  E E +E  E +E  E +E  E   +E  E +E  E +E  E E E
|---3-(3)-3-(3)-3-(3)-3-|-(3)-3-(3)-3-(3)-3-4-3-|
|-1---------------------|-----------------------|
|-----------------------|-----------------------|
|-----------------------|-----------------------|
|-----------------------|-----------------------|
|-----------------------|-----------------------|
|
| W                       +W
|-----------------------|-----------------------|
|-----------------------|-----------------------|
|-----------------------|-----------------------|
|-5---------------------|-(5)-------------------|
|-3---------------------|-(3)-------------------|
|-3---------------------|-(3)-------------------|


  E E +E  E +E  E +E  E   +E  E +E  E +E  E E E
|---3-(3)-3-(3)-3-(3)-3-|-(3)-3-(3)-3-(3)-3-4-3--|
|-1---------------------|------------------------|
|-----------------------|------------------------|
|-----------------------|------------------------|
|-----------------------|------------------------|
|-----------------------|------------------------|
|
| W                        W
|-----------------------|------------------------|
|-----------------------|------------------------|
|-----------------------|------------------------|
|-----------------------|------------------------|
|-----------------------|------------------------|
|-----------------------|------------------------|


  E E +E  E +E  E +E  E   +E  E +E  E +E  E E E
|---3-(3)-3-(3)-3-(3)-3-|-(3)-3-(3)-3-(3)-3-4-3-|
|-1---------------------|-----------------------|
|-----------------------|-----------------------|
|-----------------------|-----------------------|
|-----------------------|-----------------------|
|-----------------------|-----------------------|
|
| W                        W
|-----------------------|-----------------------|
|-----------------------|-----------------------|
|-----------------------|-----------------------|
|-----------------------|-----------------------|
|-----------------------|-----------------------|
|-----------------------|-----------------------|


  C                       F5/C
  E E +E  E +E  E +E  E   +E  E +E  E +E  E E E
|---3-(3)-3-(3)-3-(3)-3-|-(3)-3-(3)-3-(3)-3-4-3--||
|-1---------------------|------------------------||
|-----------------------|------------------------||
|-----------------------|------------------------||
|-----------------------|------------------------||
|-----------------------|------------------------||
|
| W                        W
|-----------------------|------------------------||
|-----------------------|------------------------||
|-----------------------|------------------------||
|-2---------------------|--3---------------------||
|-3---------------------|-(3)--------------------||
|-----------------------|------------------------||


 Chorus
  C5/G
  E E +E  E +E  E +E  E   +E  E +E  E +E  E E E
|---3-(3)-3-(3)-3-(3)-3-|-(3)-3-(3)-3-(3)-3-4-3-|
|-1---------------------|-----------------------|
|-----------------------|-----------------------|
|-----------------------|-----------------------|
|-----------------------|-----------------------|
|-----------------------|-----------------------|
|
| W                       +W
|-----------------------|-----------------------|
|-----------------------|-----------------------|
|-----------------------|-----------------------|
|-5---------------------|-(5)-------------------|
|-3---------------------|-(3)-------------------|
|-3---------------------|-(3)-------------------|


  C                       F5
  E E +E  E +E  E +E  E   +E  E +E  E +E  E E E
|---3-(3)-3-(3)-3-(3)-3-|-(3)-3-(3)-3-(3)-3-4-3--|
|-1---------------------|------------------------|
|-----------------------|------------------------|
|-----------------------|------------------------|
|-----------------------|------------------------|
|-----------------------|------------------------|
|
| W                        W
|-----------------------|------------------------|
|-----------------------|------------------------|
|-----------------------|------------------------|
|-2---------------------|------------------------|
|-3---------------------|--3---------------------|
|-----------------------|--1---------------------|


    C5
    E E +E  E +E  E +E  E   +E  E +E  E +E  E E E
||----3-(3)-3-(3)-3-(3)-3-|-(3)-3-(3)-3-(3)-3-4-3-|
||o-1---------------------|-----------------------|
||------------------------|-----------------------|
||------------------------|-----------------------|
||o-----------------------|-----------------------|
||------------------------|-----------------------|
|
|   W                       +W
||------------------------|-----------------------|
||o-----------------------|-----------------------|
||------------------------|-----------------------|
||--5---------------------|-(5)-------------------|
||o-3---------------------|-(3)-------------------|
||------------------------|-----------------------|


  C                       F5
  E E +E  E +E  E +E  E   +E  E +E  E +E  E E E  3x
|---3-(3)-3-(3)-3-(3)-3-|-(3)-3-(3)-3-(3)-3-4-3--||
|-1---------------------|-----------------------o||
|-----------------------|------------------------||
|-----------------------|------------------------||
|-----------------------|-----------------------o||
|-----------------------|------------------------||
|
| W                        W                     3x
|-----------------------|------------------------||
|-----------------------|-----------------------o||
|-----------------------|------------------------||
|-2---------------------|--3---------------------||
|-3---------------------|--3--------------------o||
|-----------------------|--1---------------------||


 Bridge
  C5/G
  E E +E  E +E  E +E  E   +E  E +E  E +E  E E E
|---3-(3)-3-(3)-3-(3)-3-|-(3)-3-(3)-3-(3)-3-4-3-|
|-1---------------------|-----------------------|
|-----------------------|-----------------------|
|-----------------------|-----------------------|
|-----------------------|-----------------------|
|-----------------------|-----------------------|
|
| W                       +W
|-----------------------|-----------------------|
|-----------------------|-----------------------|
|-----------------------|-----------------------|
|-5---------------------|-(5)-------------------|
|-3---------------------|-(3)-------------------|
|-3---------------------|-(3)-------------------|


  E E +E  E +E  E +E  E   +E  E +E  E +E  E E E
|---3-(3)-3-(3)-3-(3)-3-|-(3)-3-(3)-3-(3)-3-4-3--|
|-1---------------------|------------------------|
|-----------------------|------------------------|
|-----------------------|------------------------|
|-----------------------|------------------------|
|-----------------------|------------------------|
|
| W                        W
|-----------------------|------------------------|
|-----------------------|------------------------|
|-----------------------|------------------------|
|-----------------------|------------------------|
|-----------------------|------------------------|
|-----------------------|------------------------|


  E E +E  E +E  E +E  E   +E  E +E  E +E  E E E
|---3-(3)-3-(3)-3-(3)-3-|-(3)-3-(3)-3-(3)-3-4-3-|
|-1---------------------|-----------------------|
|-----------------------|-----------------------|
|-----------------------|-----------------------|
|-----------------------|-----------------------|
|-----------------------|-----------------------|
|
| W                        W
|-----------------------|-----------------------|
|-----------------------|-----------------------|
|-----------------------|-----------------------|
|-----------------------|-----------------------|
|-----------------------|-----------------------|
|-----------------------|-----------------------|


  C                       F5/C
  E E +E  E +E  E +E  E   +E  E +E  E +E  E E E
|---3-(3)-3-(3)-3-(3)-3-|-(3)-3-(3)-3-(3)-3-4-3--||
|-1---------------------|------------------------||
|-----------------------|------------------------||
|-----------------------|------------------------||
|-----------------------|------------------------||
|-----------------------|------------------------||
|
| W                        W
|-----------------------|------------------------||
|-----------------------|------------------------||
|-----------------------|------------------------||
|-2---------------------|--3---------------------||
|-3---------------------|-(3)--------------------||
|-----------------------|------------------------||


   Verse
    C5/G
    E E +E  E +E  E +E  E   +E  E +E  E +E  E E E
||----3-(3)-3-(3)-3-(3)-3-|-(3)-3-(3)-3-(3)-3-4-3-|
||o-1---------------------|-----------------------|
||------------------------|-----------------------|
||------------------------|-----------------------|
||o-----------------------|-----------------------|
||------------------------|-----------------------|
|
|   W                       +W
||------------------------|-----------------------|
||o-----------------------|-----------------------|
||------------------------|-----------------------|
||--5---------------------|-(5)-------------------|
||o-3---------------------|-(3)-------------------|
||--3---------------------|-(3)-------------------|


  C/G                     F5
  E E +E  E +E  E +E  E   +E  E +E  E +E  E E E  3x
|---3-(3)-3-(3)-3-(3)-3-|-(3)-3-(3)-3-(3)-3-4-3--||
|-1---------------------|-----------------------o||
|-----------------------|------------------------||
|-----------------------|------------------------||
|-----------------------|-----------------------o||
|-----------------------|------------------------||
|
| W                        W                     3x
|-----------------------|------------------------||
|-----------------------|-----------------------o||
|-----------------------|------------------------||
|-2---------------------|--3---------------------||
|-3---------------------|--3--------------------o||
|-3---------------------|--1---------------------||


   Chorus
    C5/G
    E E +E  E +E  E +E  E   +E  E +E  E +E  E E E
||----3-(3)-3-(3)-3-(3)-3-|-(3)-3-(3)-3-(3)-3-4-3-|
||o-1---------------------|-----------------------|
||------------------------|-----------------------|
||------------------------|-----------------------|
||o-----------------------|-----------------------|
||------------------------|-----------------------|
|
|   W                       +W
||------------------------|-----------------------|
||o-----------------------|-----------------------|
||------------------------|-----------------------|
||--5---------------------|-(5)-------------------|
||o-3---------------------|-(3)-------------------|
||--3---------------------|-(3)-------------------|


  C/G                     F5
  E E +E  E +E  E +E  E   +E  E +E  E +E  E E E  3x
|---3-(3)-3-(3)-3-(3)-3-|-(3)-3-(3)-3-(3)-3-4-3--||
|-1---------------------|-----------------------o||
|-----------------------|------------------------||
|-----------------------|------------------------||
|-----------------------|-----------------------o||
|-----------------------|------------------------||
|
| W                        W                     3x
|-----------------------|------------------------||
|-----------------------|-----------------------o||
|-----------------------|------------------------||
|-2---------------------|--3---------------------||
|-3---------------------|--3--------------------o||
|-3---------------------|--1---------------------||


  C5/G
  E E +E  E +E  E +E  E   +E  E +E  E +E  E E E
|---3-(3)-3-(3)-3-(3)-3-|-(3)-3-(3)-3-(3)-3-4-3-|
|-1---------------------|-----------------------|
|-----------------------|-----------------------|
|-----------------------|-----------------------|
|-----------------------|-----------------------|
|-----------------------|-----------------------|
|
| W                       +W
|-----------------------|-----------------------|
|-----------------------|-----------------------|
|-----------------------|-----------------------|
|-5---------------------|-(5)-------------------|
|-3---------------------|-(3)-------------------|
|-3---------------------|-(3)-------------------|
|
| Gtr III
| W                        W
|-----------------------|-----------------------|
|-----------------------|-----------------------|
|-----------------------|-----------------------|
|-----------------------|-----------------------|
|-----------------------|-----------------------|
|-----------------------|-----------------------|


  C/G                     F5
  E E +E  E +E  E +E  E   +E   E +E  E +E  E E E
|---3-(3)-3-(3)-3-(3)-3-|-(3)--3-(3)-3-(3)-3-4-3--||
|-1---------------------|-------------------------||
|-----------------------|-------------------------||
|-----------------------|-------------------------||
|-----------------------|-------------------------||
|-----------------------|-------------------------||
|
| W                        W
|-----------------------|-------------------------||
|-----------------------|-------------------------||
|-----------------------|-------------------------||
|-2---------------------|--3----------------------||
|-3---------------------|--3----------------------||
|-3---------------------|--1----------------------||
|
| W                        H..                 E
|-----------------------|-------------------------||
|-----------------------|-------------------------||
|-----------------------|-------------------------||
|-----------------------|----------------------3--||
|-----------------------|-------------------------||
|-----------------------|-------------------------||


 Interlude
  C5
  E E +E  E +E  E +E  E   +E  E +E  E +E   E  E E
|---3-(3)-3-(3)-3-(3)-3-|-(3)-3-(3)-3-(3)--3--4-3-|
|-1---------------------|-------------------------|
|-----------------------|-------------------------|
|-----------------------|-------------------------|
|-----------------------|-------------------------|
|-----------------------|-------------------------|
|
| W                       +W
|-----------------------|-------------------------|
|-----------------------|-------------------------|
|-----------------------|-------------------------|
|-5---------------------|-(5)---------------------|
|-3---------------------|-(3)---------------------|
|-----------------------|-------------------------|
|
| Gtr III
| Q   +E  E +Q     Q      +Q    +E  E  E  +E  E E
|-----------------------|-------------------------|
|-1---(1)-3-(3)---------|---------------------6-5-|
|------------------3----|-(3)---(3)---------------|
|-----------------------|-----------3--5--(5)-----|
|-----------------------|-------------------------|
|-----------------------|-------------------------|


  C                         F5
   E  E +E  E +E  E +E  E   +E   E +E  E +E  E E E
|-----3-(3)-3-(3)-3-(3)-3-|-(3)--3-(3)-3-(3)-3-4-3--|
|--1----------------------|-------------------------|
|-------------------------|-------------------------|
|-------------------------|-------------------------|
|-------------------------|-------------------------|
|-------------------------|-------------------------|
|
|  W                         W
|-------------------------|-------------------------|
|-------------------------|-------------------------|
|-------------------------|-------------------------|
|--2----------------------|--3----------------------|
|--3----------------------|--3----------------------|
|-------------------------|--1----------------------|
|
| +W                         H..                 E
|-------------------------|-------------------------|
|-(5)---------------------|-------------------------|
|-------------------------|-------------------------|
|-------------------------|----------------------3--|
|-------------------------|-------------------------|
|-------------------------|-------------------------|


  C5
  E E +E  E +E  E +E  E   +E  E +E  E +E   E  E E
|---3-(3)-3-(3)-3-(3)-3-|-(3)-3-(3)-3-(3)--3--4-3-|
|-1---------------------|-------------------------|
|-----------------------|-------------------------|
|-----------------------|-------------------------|
|-----------------------|-------------------------|
|-----------------------|-------------------------|
|
| W                       +W
|-----------------------|-------------------------|
|-----------------------|-------------------------|
|-----------------------|-------------------------|
|-5---------------------|-(5)---------------------|
|-3---------------------|-(3)---------------------|
|-----------------------|-------------------------|
|
| Q   +E  E +Q     Q      +Q    +E  E  E  +E  E E
|-----------------------|-------------------------|
|-1---(1)-3-(3)---------|---------------------6-5-|
|------------------3----|-(3)---(3)---------------|
|-----------------------|-----------3--5--(5)-----|
|-----------------------|-------------------------|
|-----------------------|-------------------------|


  C                         F5
   E  E +E  E +E  E +E  E   +E  E +E  E +E  E E E
|-----3-(3)-3-(3)-3-(3)-3-|-(3)-3-(3)-3-(3)-3-4-3--||
|--1----------------------|------------------------||
|-------------------------|------------------------||
|-------------------------|------------------------||
|-------------------------|------------------------||
|-------------------------|------------------------||
|
|  W                         W
|-------------------------|------------------------||
|-------------------------|------------------------||
|-------------------------|------------------------||
|--2----------------------|--3---------------------||
|--3----------------------|--3---------------------||
|-------------------------|--1---------------------||
|
| +W                         W
|-------------------------|------------------------||
|-(5)---------------------|------------------------||
|-------------------------|------------------------||
|-------------------------|------------------------||
|-------------------------|------------------------||
|-------------------------|------------------------||


  C5
  E E +E  E +E  E +E  E   +E  E +E  E +E  E E E
|---3-(3)-3-(3)-3-(3)-3-|-(3)-3-(3)-3-(3)-3-4-3-|
|-1---------------------|-----------------------|
|-----------------------|-----------------------|
|-----------------------|-----------------------|
|-----------------------|-----------------------|
|-----------------------|-----------------------|
|
| W                       +W
|-----------------------|-----------------------|
|-----------------------|-----------------------|
|-----------------------|-----------------------|
|-5---------------------|-(5)-------------------|
|-3---------------------|-(3)-------------------|
|-----------------------|-----------------------|
|
| E E  H.                 +W
|-----------------------|-----------------------|
|-----------------------|-----------------------|
|-----------------------|-----------------------|
|---2--5----------------|-(5)-------------------|
|---3--3----------------|-(3)-------------------|
|-----------------------|-----------------------|


  C                       F5
  E E +E  E +E  E +E  E   +E  E +E  E +E  E E E
|---3-(3)-3-(3)-3-(3)-3-|-(3)-3-(3)-3-(3)-3-4-3--||
|-1---------------------|------------------------||
|-----------------------|------------------------||
|-----------------------|------------------------||
|-----------------------|------------------------||
|-----------------------|------------------------||
|
| W                        W
|-----------------------|------------------------||
|-----------------------|------------------------||
|-----------------------|------------------------||
|-2---------------------|--3---------------------||
|-3---------------------|--3---------------------||
|-----------------------|--1---------------------||
|
| E E  H.                 +W
|-----------------------|------------------------||
|-----------------------|------------------------||
|-----------------------|------------------------||
|---2--5----------------|-(5)--------------------||
|---3--3----------------|-(3)--------------------||
|-----------------------|------------------------||


  C5
  E E +E  E +E  E +E  E   +E  E +E  E +E  E E E
|---3-(3)-3-(3)-3-(3)-3-|-(3)-3-(3)-3-(3)-3-4-3-|
|-1---------------------|-----------------------|
|-----------------------|-----------------------|
|-----------------------|-----------------------|
|-----------------------|-----------------------|
|-----------------------|-----------------------|
|
| W                       +W
|-----------------------|-----------------------|
|-----------------------|-----------------------|
|-----------------------|-----------------------|
|-5---------------------|-(5)-------------------|
|-3---------------------|-(3)-------------------|
|-----------------------|-----------------------|
|
| E E  H.                 +W
|-----------------------|-----------------------|
|-----------------------|-----------------------|
|-----------------------|-----------------------|
|---2--5----------------|-(5)-------------------|
|---3--3----------------|-(3)-------------------|
|-----------------------|-----------------------|


  C                       F5
  E E +E  E +E  E +E  E   +E  E +E  E +E  E E E
|---3-(3)-3-(3)-3-(3)-3-|-(3)-3-(3)-3-(3)-3-4-3--||
|-1---------------------|------------------------||
|-----------------------|------------------------||
|-----------------------|------------------------||
|-----------------------|------------------------||
|-----------------------|------------------------||
|
| W                        W
|-----------------------|------------------------||
|-----------------------|------------------------||
|-----------------------|------------------------||
|-2---------------------|--3---------------------||
|-3---------------------|--3---------------------||
|-----------------------|--1---------------------||
|
| W                        W
|-----------------------|------------------------||
|-----------------------|------------------------||
|-----------------------|------------------------||
|-----------------------|------------------------||
|-----------------------|------------------------||
|-----------------------|------------------------||


   Verse
    E E +E  E +E  E +E  E   +E  E +E  E +E  E E E
||----3-(3)-3-(3)-3-(3)-3-|-(3)-3-(3)-3-(3)-3-4-3-|
||o-1---------------------|-----------------------|
||------------------------|-----------------------|
||------------------------|-----------------------|
||o-----------------------|-----------------------|
||------------------------|-----------------------|


  E E +E  E +E  E +E  E   +E  E +E  E +E  E E E
|---3-(3)-3-(3)-3-(3)-3-|-(3)-3-(3)-3-(3)-3-4-3--||
|-1---------------------|-----------------------o||
|-----------------------|------------------------||
|-----------------------|------------------------||
|-----------------------|-----------------------o||
|-----------------------|------------------------||


    C5
    E E +E  E +E  E +E  E   +E  E +E  E +E  E E E
||----3-(3)-3-(3)-3-(3)-3-|-(3)-3-(3)-3-(3)-3-4-3-|
||o-1---------------------|-----------------------|
||------------------------|-----------------------|
||------------------------|-----------------------|
||o-----------------------|-----------------------|
||------------------------|-----------------------|
|
|   Gtr II
|   W                       +W
||------------------------|-----------------------|
||o-----------------------|-----------------------|
||------------------------|-----------------------|
||--5---------------------|-(5)-------------------|
||o-3---------------------|-(3)-------------------|
||------------------------|-----------------------|


  C                       F5/C
  E E +E  E +E  E +E  E   +E  E +E  E +E  E E E
|---3-(3)-3-(3)-3-(3)-3-|-(3)-3-(3)-3-(3)-3-4-3--||
|-1---------------------|-----------------------o||
|-----------------------|------------------------||
|-----------------------|------------------------||
|-----------------------|-----------------------o||
|-----------------------|------------------------||
|
| W                        W
|-----------------------|------------------------||
|-----------------------|-----------------------o||
|-----------------------|------------------------||
|-2---------------------|--3---------------------||
|-----------------------|-----------------------o||
|-----------------------|------------------------||


   Chorus
    C5/G
    E E +E  E +E  E +E  E   +E  E +E  E +E  E E E
||----3-(3)-3-(3)-3-(3)-3-|-(3)-3-(3)-3-(3)-3-4-3-|
||o-1---------------------|-----------------------|
||------------------------|-----------------------|
||------------------------|-----------------------|
||o-----------------------|-----------------------|
||------------------------|-----------------------|
|
|   W                       +W
||------------------------|-----------------------|
||o-----------------------|-----------------------|
||------------------------|-----------------------|
||--5---------------------|-(5)-------------------|
||o-3---------------------|-(3)-------------------|
||--3---------------------|-(3)-------------------|


  C/G                     F5
  E E +E  E +E  E +E  E   +E  E +E  E +E  E E E  4x
|---3-(3)-3-(3)-3-(3)-3-|-(3)-3-(3)-3-(3)-3-4-3--||
|-1---------------------|-----------------------o||
|-----------------------|------------------------||
|-----------------------|------------------------||
|-----------------------|-----------------------o||
|-----------------------|------------------------||
|
| W                        W                     4x
|-----------------------|------------------------||
|-----------------------|-----------------------o||
|-----------------------|------------------------||
|-2---------------------|--3---------------------||
|-3---------------------|--3--------------------o||
|-3---------------------|--1---------------------||


   Out-Chorus
    G5
    E E +E  E +E  E +E  E   +E  E +E  E +E  E E E
||----3-(3)-3-(3)-3-(3)-3-|-(3)-3-(3)-3-(3)-3-4-3-|
||o-1---------------------|-----------------------|
||------------------------|-----------------------|
||------------------------|-----------------------|
||o-----------------------|-----------------------|
||------------------------|-----------------------|
|
|   W                       +W
||------------------------|-----------------------|
||o-----------------------|-----------------------|
||------------------------|-----------------------|
||--5---------------------|-(5)-------------------|
||o-5---------------------|-(5)-------------------|
||--3---------------------|-(3)-------------------|


  F5
  E E +E  E +E  E +E  E   +E  E +E  E +E  E E E  4x
|---3-(3)-3-(3)-3-(3)-3-|-(3)-3-(3)-3-(3)-3-4-3--||
|-1---------------------|-----------------------o||
|-----------------------|------------------------||
|-----------------------|------------------------||
|-----------------------|-----------------------o||
|-----------------------|------------------------||
|
| W                       +W                     4x
|-----------------------|------------------------||
|-----------------------|-----------------------o||
|-----------------------|------------------------||
|-3---------------------|-(3)--------------------||
|-3---------------------|-(3)-------------------o||
|-1---------------------|-(1)--------------------||


 Outro
  C5
  E E +E  E +E  E +E  E   +E  E +E  E +E  E E E
|---3-(3)-3-(3)-3-(3)-3-|-(3)-3-(3)-3-(3)-3-4-3-|
|-1---------------------|-----------------------|
|-----------------------|-----------------------|
|-----------------------|-----------------------|
|-----------------------|-----------------------|
|-----------------------|-----------------------|
|
| W                       +W
|-----------------------|-----------------------|
|-----------------------|-----------------------|
|-----------------------|-----------------------|
|-5---------------------|-(5)-------------------|
|-3---------------------|-(3)-------------------|
|-----------------------|-----------------------|


  E E +E  E +E  E +E  E   +E  E +E  E +E  E +E  E
|---3-(3)-3-(3)-3-(3)-3-|-(3)-3-(3)-3-(3)-3-(3)-3--|
|-1---------------------|--------------------------|
|-----------------------|--------------------------|
|-----------------------|--------------------------|
|-----------------------|--------------------------|
|-----------------------|--------------------------|
|
| W                       +W
|-----------------------|--------------------------|
|-----------------------|--------------------------|
|-----------------------|--------------------------|
|-5---------------------|-(5)----------------------|
|-3---------------------|-(3)----------------------|
|-----------------------|--------------------------|


  E E +E  E +E  E +E  E   +E  E +E  E +E  E E E
|---3-(3)-3-(3)-3-(3)-3-|-(3)-3-(3)-3-(3)-3-4-3-|
|-1---------------------|-----------------------|
|-----------------------|-----------------------|
|-----------------------|-----------------------|
|-----------------------|-----------------------|
|-----------------------|-----------------------|
|
| W                       +W
|-----------------------|-----------------------|
|-----------------------|-----------------------|
|-----------------------|-----------------------|
|-5---------------------|-(5)-------------------|
|-3---------------------|-(3)-------------------|
|-----------------------|-----------------------|


  E +E  +E  E +E  E +E  E   +E  E +E  E +E  E +E  E
|-----------3-(3)-3-(3)-3-|-(3)-3-(3)----------------|
|-1-(1)-(1)---------------|-----------6-(6)-4-(4)-6--|
|-------------------------|--------------------------|
|-------------------------|--------------------------|
|-------------------------|--------------------------|
|-------------------------|--------------------------|
|
| W                         +W
|-------------------------|--------------------------|
|-------------------------|--------------------------|
|-------------------------|--------------------------|
|-5-----------------------|-(5)----------------------|
|-3-----------------------|-(3)----------------------|
|-------------------------|--------------------------|


  +E  E +E  E +H        W
|-----3-(3)----------|--------*|
|-(6)-------1-(1)----|--------*|
|--------------------|--------*|
|--------------------|--------*|
|--------------------|--------*|
|--------------------|--------*|
|
|  H           H       +W
|--------------------|--------*|
|--------------------|--------*|
|--------------------|--------*|
|--------------5-----|-(5)----*|
|--------------3-----|-(3)----*|
|--------------------|--------*|



Duration Legend
---------------
W - whole; H - half; Q - quarter; E - 8th; S - 16th; T - 32nd; X - 64th; a - acciaccatura
+ - note tied to previous; . - note dotted; .. - note double dotted
Uncapitalized letters represent notes that are staccato (1/2 duration)
Irregular groupings are notated above the duration line
Duration letters will always appear directly above the note/fret number it represents the
duration for.  Duration letters with no fret number below them represent rests.  Multi-
bar rests are notated in the form Wxn, where n is the number of bars to rest for.  Low
melody durations appear below the staff

Tablature Legend
----------------
 h   - hammer-on
 p   - pull-off
 b   - bend
 pb  - pre-bend
 r   - bend release (if no number after the r, then release immediately)
 /\  - slide into or out of (from/to "nowhere")
 s   - legato slide
 S   - shift slide
 - natural harmonic
[n]  - artificial harmonic
n(n) - tapped harmonic
 ~   - vibrato
 tr  - trill
 T   - tap
 TP  - trem. picking
 PM  - palm muting
\n/  - tremolo bar dip; n = amount to dip
 \n  - tremolo bar down
 n/  - tremolo bar up
/n\  - tremolo bar inverted dip
 =   - hold bend; also acts as connecting device for hammers/pulls
 <> - volume swell (louder/softer)
 x   - on rhythm slash represents muted slash
 o   - on rhythm slash represents single note slash

Misc Legend
-----------
 |  - bar
||  - double bar
||o - repeat start
o|| - repeat end
*|  - double bar (ending)
 :  - bar (freetime)
 $  - Segno
 &  - Coda
Tempo markers -  = BPM(8/16=s8/s16), where s8 = swing 8ths, s16 = swing 16ths

Tap to rate this tab
 
# A B C D E F G H I J K L M N O P Q R S T U V W X Y Z