Song name
# A B C D E F G H I J K L M N O P Q R S T U V W X Y Z

Nine Inch Nails - Burn tab

-----------------------------------------------------------------------------
			     SONG NAME - Band Name
-----------------------------------------------------------------------------
Tabbed by: Dead God 666
Email: rf_salmon@hotmail.com

This versions a bit like the other one but this version sounds better.

Tuning: DADGBe

This is the bit after Trent says "Burn".

e|-----------------------|
B|-----------------------|
G|-----------------------|
D|----------------3-5----|
A|-0----6----5----3-5----|
D|-0----6----5-----------|

This is the fast part.

e|--------------------------------------------|
B|--------------------------------------------|
G|--------------------------------------------|
D|-7/7-7-7/7--7/7-7-7/7--7/7-7-7/7---10---12--|
A|-5/5-5-5/5--5/5-5-5/5--5/5-5-5/5-0-8--0-10--|
D|--------------------------------------------|

Notation:

| /  slide up

email me with any corrections, hate mail and praising
=============================================================================
Tap to rate this tab
 
# A B C D E F G H I J K L M N O P Q R S T U V W X Y Z