Song name
# A B C D E F G H I J K L M N O P Q R S T U V W X Y Z

Nine Inch Nails - Piggy tab

Hey guys this is my first tab so listen to the song and heres the notes, which are 
all just let to ring in the verse, then its just a run throughout the rest. Dont hesitate to 
constructive chriticism. Later

Tune Guitar: Half step down

Key:
p - Pull Off


Verse
Eb-------------------------------------------------------|X2
Bb-------------------------------------------------------|
Gb-------------------------------------------------------|
Db-------------------------------------3p2---------------|
Ab--2---5-----------2---5--------------------------------|
Eb----------5---4-----------5---4------------------------|

Chorus
Eb-------------------------------------------------------| X2
Bb-------------------------------------------------------|
Gb-------------------------------------------------------|
Db-------------------------------------------------------|
Ab-0222-0222-0222-0222-33-55---0222-0222-0222-0222-0233--|
Eb-------------------------------------------------------|

Outro (drum solo etc.)
Eb-------------------------------------------------------|repeat 'til end
Bb-------------------------------------------------------|
Gb-------------------------------------------------------|
Db-------------------------------------------------------|
Ab-0222------7777------55-44-----------------------------|
Eb------3333------5555-----------------------------------|

Warbled Riff Played Over Outro
Eb------17----------17--15--14--12--11--------------------|
Bb------------14------------------------------------------|
Gb--------------------------------------------------------|
Db--------------------------------------------------------|
Ab--------------------------------------------------------|
Eb--------------------------------------------------------|
(listen for timing)

END

If any timings are required please ask, but basically there you have it. Enjoy!!
Tap to rate this tab
# A B C D E F G H I J K L M N O P Q R S T U V W X Y Z