Song name
# A B C D E F G H I J K L M N O P Q R S T U V W X Y Z

Nine Inch Nails - Ringfinger tab

Ringfinger
Nine Inch Nails
Pretty Hate Machine

Downtune, or play in drop Eb. I tabbed it in drop Eb.
Chorus
|------------------|
|------------------|
|-3----------------|
|----4--5--6--2--0-|

Ending part
|-----------------|----------------------|---------|
|-----------------|----------------------|---------|
|-----------------|----------------------|-----6---|
|-7h9-9-9-9-0-0-0-|-7h9-9-9-9-0-0-0--2-2-|-0-7---7-|
                                         synth fill


Tap to rate this tab
# A B C D E F G H I J K L M N O P Q R S T U V W X Y Z