Song name
# A B C D E F G H I J K L M N O P Q R S T U V W X Y Z

Nine Inch Nails - Only tab

----------------------------------------------------------------------------
			     Only Live - Nine Inch Nails
----------------------------------------------------------------------------
Tabbed by: Jack Flint
Email: calogidi@hotmail.com

Tuning: Standard (EADGBE)

This is the live version off the BYIT DVD. 

http://youtube.com/watch?v=iCdzCJWgbQs

Intro/Chorus

e|------------------------------------------|
B|------------------------------------------|
G|------7-7-7-7-7-7-7-7--9-9-9--4-----4-4-4-|
D|------7-7-7-5-7-7-7-5--9-9-9--4-----4-4-4-|
A|------5-5-5-5-5-5-5-5--7-7-7--2-----2-2-2-|
E|------------------------------------------| x4

Chorus Lead

e|--------------------------------------------------------|
B|--------------------------------------------------------|
G|--11-11-11-11-11-11-11-11--13-13-13--14-14-14-14-14-14--|
D|--------------------------------------------------------|
A|--9--9--9--9--9--9--9--9---11-11-11--12-12-12-12-12-12--|
E|--------------------------------------------------------| x2

Post-Chorus

e|--------------------------------------|
B|--------------------------------------| <---- tremolo pick these
G|-4----------------/-14-------sb---\(0)|
D|--------------------------------------|
A|-2----------------/-12-------sb---\(0)|
E|--------------------------------------| x4
                                 ^
                                 |

                          slight bend here

Random Note 1
Right when Trent says "Less concern about fitting into the world"

e|-------------------------------------------|
B|---7--7--7-7-77-7-7-7-7-777-7-7-7--7--77-7-| <---- bend and play randomly
G|-------------------------------------------|
D|-------------------------------------------|
A|-------------------------------------------|
E|-------------------------------------------|

Riff 1
When Trent sings "Yes, I'm alone, then again..."

e|----------------------------------------|
B|----------------------------------------|
G|----------------------------------------|
D|-9------/-14------\-7-------/-12--------| <----- tremolo picked
A|----------------------------------------|
E|-7------/-12------\-5-------/-10--------| x2

Riff 2
Before Chorus

e|---------------------------------|
B|---------------------------------|
G|---------------------------------|
D|-9h10--7h9-9-99-10--7-9-7--------|
A|--------------------------7b-----|
E|---------------------------------| x4

Chorus x4
Post-Chorus x4

Riff 3

e|-----------------|
B|-----------------|
G|-----------------|
D|-----------------|
A|-----------------|
E|--7-5--/10b---5--| x4

Post-Chorus x4
Riff 2 x2
Chorus x4

Riff 4a

e|-----------------|
B|-----------------|
G|-----------------|
D|--7h9-7h9-99-7---|
A|-----------------|
E|-----------------| x4

Riff 4b

e|----------------------| This part is a little hard to get. It seems like
B|----------------------| it's tremolo, but it's not. It's consistently 4
G|----------------------| 16ths to each note.
D|-7h9999-7777-9-999-7--|
A|----------------------|
E|----------------------| x4

Outro

e|--------------------------------------------------------|
B|------8--------4------x--x-x---5------8----------4------|
G|------10b(12)--6b(8)--x--x-x---7b(9)--10b(12)----6b(8)--|
D|----------------------x--x-x----------------------------|
A|----------------------x--x-x----------------------------|
E|----------------------x--x-x----------------------------| x1


e|-------------------------------------------------------------------|
B|-x--x-x--5-------8---------3-------x--x-x--5-------9--------4------|
G|-x--x-x--7b(9)---10b(12)---5b(7)---x--x-x--7b(9)---11b(13)--6b(8)--|
D|-x--x-x----------------------------x--x-x--------------------------|
A|-x--x-x----------------------------x--x-x--------------------------|
E|-x--x-x----------------------------x--x-x--------------------------| x1

Well, that's it. If you have any questions, please e-mail me (e-mail at top).
There are some tricky parts in this song, so don't be ashamed to ask :)

| sb slight bend
| b  bend
| /  slide up
| \  slide down
| h  hammer-on
| p  pull-off
| ~  vibrato
| +  harmonic
| x  Mute note
============================================================================
Tap to rate this tab
# A B C D E F G H I J K L M N O P Q R S T U V W X Y Z