Song name
# A B C D E F G H I J K L M N O P Q R S T U V W X Y Z

Nine Inch Nails - Pilgrimage tab

I found this and thought I'd sponser it . . . it sounds cool.


PILGRIMAGE
Dropped-D tuning

e------------------------------------|
B------------------------------------|
G------------------------------------|
D----4>5---6---10---4>5---5>6---7----|
A----4>5---6---10---4>5---5>6---7----|
D----4>5---6---10---4>5---5>6---7----|

played over this

e------|
B------|
G--5---|
D--4---|
A--3---|
D------|


Main Melody

e------------------------------------------------------|
B------------------------------------------------------|
G--8h9p8--13--11--9--8--6--5h6p5---8--6--5-------------|
D--------------------------------------------4h6--6----|
A------------------------------------------------------|
D------------------------------------------------------|

[2:02]

e-------------8----8----|
B---7----7----7----7----|
G---8----5----6----7----|
D-----------------------|
A-----------------------|
D-----------------------|
Tap to rate this tab
# A B C D E F G H I J K L M N O P Q R S T U V W X Y Z