Song name
# A B C D E F G H I J K L M N O P Q R S T U V W X Y Z

Nine Inch Nails - Warning tab

-------------------------------------------------------------------------------
			     THE WARNING - Nine Inch Nails
-------------------------------------------------------------------------------
Tabbed by: David Maunder
Email: apodis@hotmail.co.uk

Tuning:eadgbE


Intro (clean guitar)

e|---------------------------------------------------------------------------|
B|---------------------------------------------------------------------------|
G|---------------------------------------------------------------------------|
D|---------------------------------------------------------------------------|
A|--3--3--/15--15--15--13--13--/15--18--18--\17--\13--13--13--15p13--15------|
E|---------------------------------------------------------------------------|

Riff 1 (distorted guitar)

e|---------------------------------------------------------------------------|
B|---------------------------------------------------------------------------|
G|--------5--5--5--~3--~3--5--/8--8--7---------------------------------------|
D|--5--5--------------------------------8--8--8--10p8--10--------------------|
A|--5--5---------------------------------------------------------------------|
E|--3--3---------------------------------------------------------------------|

Chord pattern

e|---------------------------------------------------------------------------|
B|---------------------------------------------------------------------------|
G|--5--------8---------------------------------------------------------------|
D|--5--------8----8----------------------------------------------------------|
A|--3--------6----8----------------------------------------------------------|
E|----------------6----------------------------------------------------------|

Riff 2 (distorted guitar)

e|---------------------------------------------------------------------------|
B|---------------------------------------------------------------------------|
G|---------------------------------------------------------------------------|
D|---------------------------------------------------------------------------|
A|--3--/13-13-13-13---13\6--6/8\3--3-----------------------------------------|
E|---------------------------------------------------------------------------| 
                                        
                      add variations to the end part of riff


| /  slide up
| \  slide down
| h  hammer-on
| p  pull-off
| ~  vibrato
| +  harmonic
| x  Mute note
===============================================================================
Tap to rate this tab
 
# A B C D E F G H I J K L M N O P Q R S T U V W X Y Z