Song name
# A B C D E F G H I J K L M N O P Q R S T U V W X Y Z

Nine Inch Nails - 1 Ghosts I tab

1 Ghosts I - Nine Inch Nails


This is one way to play the song with only one guitar. Some things will be left out due 
this restriction. Nevertheless, it will sound very good. Just let the sound fade out 
on it's own.

Tabbed by: Nod
Based on tab by: Kdownes

Standard tuning

3/4

e|-----------------|------------|-------------|-----|
B|-------------12--|------------|-------------|-----|
G|-------14--------|-------12---|-9-------9---|-----|
D|-----------------|------------|-10------10--|-----|
A|-12--------------|-13---------|-12----------|-----|
E|-----------------|------------|-13----------|-----|

e|-----------------|----------------|-------|-------|
B|---------12------|----------------|-------|-------|
G|-14--9-----------|-14----12-------|-------|-------|
D|-----10----------|-------------15-|-14----|-14----|
A|-12--12----------|-13-------------|-15----|-------|
E|-----------------|----------------|-17----|-15----|

e|------------|----------------|----------------|--------------|
B|---------12-|----------------|----------------|--------------|
G|-14--9------|-14----12-------|----------------|--------------|
D|-----10-----|-------------15-|-14----12----15-|-14--12----14-|
A|-12--12-----|-13----17-------|-------15-------|--------------|
E|------------|-------18-------|-13----17-------|-15-----------|

e|----------------|----------------|--------|-------|
B|-------------12-|----------------|--------|-------|
G|-14----14-------|---------12-----|-9------|-9-----|
D|-------14-------|----------------|-10-----|-------|
A|-12-------------|-13-------------|-12-----|-------|
E|----------------|----------------|-13-----|-10----|

e|------------|------------|------------|-----------| x 2
B|------------|------------|------------|-----------|
G|------------|------------|--------9---|-------9---|
D|-------10---|-------12---|-------10---|-------10--|
A|-12----12---|-13----13---|-------12---|-------12--|
E|-------12---|-------13---|-13----13---|-15----13--|

e|------------|------------|------------|-----------|
B|------------|------------|-13---------|-15--------| Beginning of high
G|------------|------------|--------9---|-------9---| picking.
D|-------10---|-------12---|-------10---|-------10--|
A|-12----12---|-13----13---|-------12---|-------12--|
E|-------12---|-------13---|-13----13---|-15----13--|

e|-12---------|-15---------|------------|-12--------| x 4
B|------------|------------|-13---------|-----------|
G|------------|------------|--------9---|-------9---|
D|-------10---|-------12---|-------10---|-------10--|
A|-12----12---|-13----13---|-------12---|-------12--|
E|-------12---|-------13---|-13----13---|-15----13--|

e|-12---------|-15---------|------------|-----------|
B|------------|------------|-13---------|-----------| End of high picking.
G|------------|------------|--------9---|-------9---|
D|-------10---|-------12---|-------10---|-------10--|
A|-12----12---|-13----13---|-------12---|-------12--|
E|-------12---|-------13---|-13----13---|-15----13--|

e|------------|------------|------------|-----------| x 2
B|------------|------------|------------|-----------|
G|------------|------------|--------9---|-------9---|
D|-------10---|-------12---|-------10---|-------10--|
A|-12----12---|-13----13---|-------12---|-------12--|
E|-------12---|-------13---|-13----13---|-15----13--|

End
Tap to rate this tab
# A B C D E F G H I J K L M N O P Q R S T U V W X Y Z