Guitaretab - guitar tabs
Song name
# A B C D E F G H I J K L M N O P Q R S T U V W X Y Z

Nine Inch Nails - Collector tab

The Collector
NiN
With Teeth

Very weird rhythm just listen to the song to find the tempo

b=Bend

Pre-Chorus
E-------------------------------------------------------------|
B-------------------------------------------------------------|
G-5-5-55-5-5-55--5-5---5-5-5-5-555-5-5-55-5-5-5---------------|
D-------------------------------------------------------------|
A-------------------------------------------------------------|
E-------------------------------------------------------------|
[ Tab from: http://www.guitaretab.com/n/nine-inch-nails/182266.html ]
Chorus
E----------------------------------------------8-8-888-9b-----|
B-------------------------------------------------------------|
G-10-10-10-10-10-10-10-10--5-5-5-5-5-5-5-5--------------------|
D-10-10-10-10-10-10-10-10--5-5-5-5-5-5-5-5--------------------|
A-8--8--8--8--8--8--8--8---3-3-3-3-3-3-3-3--------------------|
E-------------------------------------------------------------|

After the first Chorus
E-------------------------------------------------------------|
B--4-3-1-3--4-3-1-3--4-3-1-3--4-3-1-3-------------------------|
G-------------------------------------------------------------|
D-------------------------------------------------------------|
A-------------------------------------------------------------|
E-------------------------------------------------------------|
Related for Collector tab
Advertisement will be closed in 10 seconds