Guitaretab - guitar tabs
Song name
# A B C D E F G H I J K L M N O P Q R S T U V W X Y Z

Nine Inch Nails - The Big Come Down tab

Tabbed by: TheNiNGuitarist, Youtube search me!!!!
Band:NiN
Album:The Fragile
V= Vibrato
\= slide
There is 3 ways to play the main riff of this song, Robin Finck's way sounds the best.

First the Aaron North way
E-------------------------------------------------|
B-------------------------------------------------|
G-------------------------------------------------|
D--12\9--17--15v---12\9--17-15v-15-15-17-17-------|
A-------------------------------------------------|
D-------------------------------------------------|

Robin Finck way
E-------------------------------------------------|
B-------------------------------------------------|
G-------------------------------------------------|
D-------17--15v--------17--15v--15-15-17-17-------|
A-------17--15v--------17--15v--15-15-17-17-------|
D--12\9---------12\9------------------------------|

other way
E-------------------------------------------------|
B-------------------------------------------------|
G-------------------------------------------------|
D-------17--15v--------17--15v--15-15-17-17-------|
A-------17--15v--------17--15v--15-15-17-17-------|
D-=12\9-17--15v--12\9--17--15v--15-15-17-17-------|
[ Tab from: http://www.guitaretab.com/n/nine-inch-nails/189934.html ]
Chorus:"There is no place I can go"
E-------------------------------------------------|
B-------------------------------------------------|
G-------------------------------------------------|
D---8-8-8-8-8-8-8-8----5-5-5-5-5-5-5-5------------|
A---8-8-8-8-8-8-8-8----5-5-5-5-5-5-5-5------------|
D---8-8-8-8-8-8-8-8----5-5-5-5-5-5-5-5------------|


Pre-Solo:
E-------------------------------------------------|
B-------------------------------------------------|
G-------------------------------------------------|
D-10v-10v-10v-10v-10v-10v-10v-10v-10v-10v-10v-10v-|
A-------------------------------------------------|
D-------------------------------------------------|

Solo: after every solo stop make tons of feedback noise

E-------------------------------------------------| x3
B-------------------------------------------------|
G-------------------------------------------------|
D--121212121-10101010-1212121-10101010------------|
A-------------------------------------------------|
D-------------------------------------------------|
then last solo

E-------------------------------------------------------|
B-------------------------------------------------------|
G---------------------12121212-11111111-10101010-99999--|
D--121212121-10101010-----------------------------------|
A-------------------------------------------------------|
D-------------------------------------------------------|

Outro: just repeat main riff.

All figured out by TheNiNGuitarist
Related for The Big Come Down tab
×
The Big Come Down