Song name
# A B C D E F G H I J K L M N O P Q R S T U V W X Y Z

Nine Inch Nails - Hurt Live tab

-------------------------------------------------------------------------------
			     Hurt (Live) - Nine Inch Nails
-------------------------------------------------------------------------------
Tabbed by: Rhys...
Email: the_citizen_erased@hotmail.co.uk

Tuning: Standard


Based on 2009 tour version. All finger picked.

Email any questions

Main riff: 


I hurt myself...
e|--------------|-------0----------| 
B|-------6----3-|-----3---------3--| 
G|--------------|---2-------4------| 
D|---4----------|-0-------2--------| 
A|-2------------|------------------| 
E|--------------|------------------| 


Chorus: 
What have I become...
e|---------|---------|---------|---------| 
B|---------|---------|---------|---------| 
G|-2-2-2-2-|-2-2-2-2-|-2-2-2-2-|-2-2-2-2-| 
D|---------|---------|---------|-0-------| 
A|-0-------|-2-------|---------|---------| 
E|---------|---------|-3-------|---------| 



And you could have it all...
e|-----0----|----------|-----------|------------| 
B|--------3-|-----3--2-|------2--0-|----0---0-2-| 
G|---2------|---2------|---0-------|-----2------| 
D|--2-------|--0-------|--0--------|--0---------| 
A|-0--------|-2--------|-----------|-0----------| 
E|----------|----------|-3---------|------------| 

e|-----0-2--|----------|-----------|------------| 
B|--------3-|-----3--2-|------2--0-|----0---0---| 
G|---2------|---2------|---0-------|-----2------| 
D|--2-------|--0-------|--0--------|--0---------| 
A|-0--------|-2--------|-----------|-0----------| 
E|----------|----------|-3---------|------------| 

Repeat verse then chorus again.

Outro: 


If I could start again...
e|---------| 
B|---------| 
G|-9-9-9-9-| 
D|-7-7-7-7-| 
A|---------| 
E|---------| 


I would find... 
e|---------| 
B|---------| 
G|---------| 
D|-7---2---| 
A|--------2| 
E|---------| 



| /  slide up
| \  slide down
| h  hammer-on
| p  pull-off
| ~  vibrato
| +  harmonic
| x  Mute note
Tap to rate this tab
# A B C D E F G H I J K L M N O P Q R S T U V W X Y Z