Song name
# A B C D E F G H I J K L M N O P Q R S T U V W X Y Z

Nine Inch Nails - Help Me I Am In Hell tab

----------------------------------------------------------------------------
Help Me I Am In Hell - Nine Inch Nails
-----------------------------------------------------------------------------
Tabbed by: jonathan_5150
Email: jonathanmichael5150@hotmail.com

Tuning: Standard

e|---------------------------------------|
B|---------------------------------------|
G|-----------------------------------13--|
D|--9--9--9--10-10-10-10-10-12-10-12-12--|
A|--7--7--7--7--7--7--7--7--7--7--7--11--|
E|--0--0--0--0--0--0--0--0--0--0--0------|

e|---------------------------------------|
B|---------------------------------------|
G|-----------------------------------7---|
D|--9--9--9--10-10-10-10-10-7--7--6--6---|
A|--7--7--7--7--7--7--7--7--7--7--7--7---|
E|--0--0--0--0--0--0--0--0--0--0---------|

It's that same thing repeating over and over again, play it on an acoustic and just 
on parts to make it sound different, palm mute the beginning, all that jazz.
Tap to rate this tab
# A B C D E F G H I J K L M N O P Q R S T U V W X Y Z