Song name
# A B C D E F G H I J K L M N O P Q R S T U V W X Y Z

Nine Inch Nails - 13 Ghosts Ii chords

Highlighted       Show chord diagrams
-----------------------------------------------------------------
13 Ghosts II - Nine Inch Nails
-----------------------------------------------------------------
Tabbed by:	Edaemus 
Email:		You wish. 

Tuning:		Standard (EADGBe) 

This is pretty simple. 
No, it's not exactly what Trent is playing on the piano, but that just 
wouldn't work on guitar and this sounds good. I know for a fact that the other tab 
on here is crap. 
So there. :)


   G    C    G    C  Gmaj7   C  Gadd9  Cadd9
e|------0---------0----2--3--------------------------------------|
B|-0---------0---------------1----------3------------------------|
G|--------------------------------2--0---------------------------| And repeat. 
D|------2---------2----------2----------2------------------------| Simple! 
A|-2----3----2----3----2-----3----2-----3------------------------|
E|-3---------3---------3----------3------------------------------|


I'm working on 36 Ghosts IV at the moment as well. 
Tap to rate this tab
# A B C D E F G H I J K L M N O P Q R S T U V W X Y Z