Song name
# A B C D E F G H I J K L M N O P Q R S T U V W X Y Z

Nine Inch Nails - Burn tab

Nine Inch Nauls
"BURN" live ver.
Tuning:Drop-D(Guitar 1&2)
 /\  - slide into or out of 

I love this song!

After "I'm gonna burn this whole world down" ,play this

Main Rif(Guitar 1&2)
|-----------------------------------------------------------------|
|-----------------------------------------------------------------|
|-----------------------------------------------------------------|
|--10---12-10---12-10---12-10---12-10---12-10---12-10---12-10---12|
|--10---12-10---12-10---12-10---12-10---12-10---12-10---12-10---12|
|--10---12-10---12-10---12-10---12-10---12-10---12-10---12-10---12|


then...
|-----------------|       |------------------|
|-----------------|       |------------------|
|-----------------|   or  |-10--7----12-10---|
|-15-12---17-15---|       |-10--7----12-10---|
|-15-12---17-15---|       |-8---5----10-8----|
|-15-12---17-15---|       |------------------|


Repeat this "main rif" as you need.




Then,"outro" is like this...

Guitar 1(robin_finck)
|------------------------------------|
|------------------------------------|
|------------------------------------|
|------------------------------------|
|-9---10-\3----/15--9---10-\3----/15-|
|------------------------------------|

|------------------------------------|
|------------------------------------|
|------------------------------------|
|------------------------------------|
|-9---10-\3----/15--9---10-/15-------|
|------------------------------------|

Guitar 2(trent_reznor)
-Repeat "main rif"

Repeat this "outro" as you need.
when you play the robin's part, use tremolo bar or vibrato as you like.


THAT'S ALL!!   ENJOY!! :D
Tap to rate this tab
# A B C D E F G H I J K L M N O P Q R S T U V W X Y Z