Song name
# A B C D E F G H I J K L M N O P Q R S T U V W X Y Z

Nine Inch Nails - Right Where It Belongs tab

I do not stake claim to this tab as being my own in anyway.  I found this guy (leskop) 
Youtube playing it and he had tabs available, I am simply relocating them here where the 
mass of guitar players and enthusiasts will find them.  All credit for tabbing goes to leskop.

Sounds fantastic with an acoustic guitar, very much like the version from the album.

Intro:

E|---------------------|----------------------------|----------------------------|
B|---------------------|---------3------------------|---------7------------------|
G|----------------5----|-5---------------------9----|-9---------------------12---|
D|-0----0----0----0----|-0-----------0----0----0----|-0-----------0----0----0----|
A|---------------------|----------------------------|----------------------------|
E|---------------------|----------------------------|----------------------------|


E|----------------------------|---------8------------------|-----------------------0----|
B|---------10------------11---|-11-------------------------|----------------------------|
G|-12-------------------------|----------------------------|---------7------------------|
D|-0-----------0----0----0----|-----------------------10---|-10-------------------------|
A|----------------------------|----------------------------|----------------------------|
E|----------------------------|-8-----------8----8----8----|-8-----------8----8----8----|


E|-0--------------------------|---------5-------------8----|
B|---------6-------------6----|-8--------------------------|
G|----------------------------|----------------------------|
D|----------------------------|----------------------------|
A|----------------------------|-8-----------8----8----8----|
E|-6-----------6----6----6----|----------------------------|


Verse:

                    See        the      animal . . .

E|-8-------10-----------------|
B|----------------------------|
G|-----------------------5----|
D|-0-----------0----0----0----|
A|----------------------------|
E|----------------------------|


E|----------------------------|----------------------------|----------------------------|
B|---------3------------------|---------7------------------|---------10------------11---|
G|-5---------------------9----|-9---------------------12---|-12-------------------------|
D|-0-----------0----0----0----|-0-----------0----0----0----|-0-----------0----0----0----|
A|----------------------------|----------------------------|----------------------------|
E|----------------------------|----------------------------|----------------------------|


E|---------8------------------|-----------------------0----|-0--------------------------|
B|-11-------------------------|----------------------------|---------6-------------6----|
G|----------------------------|---------7------------------|----------------------------|
D|-----------------------10---|-10-------------------------|----------------------------|
A|----------------------------|----------------------------|----------------------------|
E|-8-----------8----8----8----|-8-----------8----8----8----|-6-----------6----6----6----|


E|---------5-------------8----|-8-------10-----------------|----------------------------|
B|-8--------------------------|----------------------------|---------3------------------|
G|----------------------------|-----------------------5----|-5---------------------9----|
D|----------------------------|-0-----------0----0----0----|-0-----------0----0----0----|
A|-8-----------8----8----8----|----------------------------|----------------------------|
E|----------------------------|----------------------------|----------------------------|

E|----------------------------|----------------------------|---------8------------------|
B|---------7------------------|---------10------------11---|-11-------------------------|
G|-9---------------------12---|-12-------------------------|----------------------------|
D|-0-----------0----0----0----|-0-----------0----0----0----|-----------------------10---|
A|----------------------------|----------------------------|----------------------------|
E|----------------------------|----------------------------|-8-----------8----8----8----|


E|-----------------------0----|-0--------------------------|---------5-------------5----|
B|----------------------------|---------6-------------6----|-8--------------------------|
G|---------7------------------|----------------------------|----------------------------|
D|-10-------------------------|----------------------------|----------------------------|
A|----------------------------|----------------------------|-8-----------8----8----8----|
E|-8-----------8----8----8----|-6-----------6----6----6----|----------------------------|


CHORUS

              what      if      everything . . . .

E|-5-------6------------------|---------0-------------5----|-5-------6------------------|
B|-----------------------3----|-3--------------------------|----------------------------|
G|----------------------------|----------------------------|-----------------------7----|
D|----------------------------|----------------------------|----------------------------|
A|----------------------------|----------------------------|----------------------------|
E|-3-----------3----3----3----|-3-----------3----3----3----|-6-----------6----6----6----|


E|---------0------------------|-3-------5------------------|----------------------------|
B|-----------------------6----|----------------------------|-----------------------6----|
G|-7--------------------------|-----------------------2----|-2-------3------------------|
D|----------------------------|-3-----------3----3----3----|-3-----------3----3----3----|
A|----------------------------|----------------------------|----------------------------|
E|-6-----------6----6----6----|----------------------------|----------------------------|


E|---------0------------------|-----------------------5----|-5-------6------------------|
B|-6--------------------------|----------------------------|-----------------------3----|
G|----------------------------|---------3------------------|----------------------------|
D|-----------------------7----|-7--------------------------|----------------------------|
A|-3-----------3----3----3----|-3-----------3----3----3----|----------------------------|
E|----------------------------|----------------------------|-3-----------3----3----3----|


E|---------0-------------5----|-5-------6------------------|---------0------------------|
B|-3--------------------------|----------------------------|-----------------------6----|
G|----------------------------|-----------------------7----|-7--------------------------|
D|----------------------------|----------------------------|----------------------------|
A|----------------------------|----------------------------|----------------------------|
E|-3-----------3----3----3----|-6-----------6----6----6----|-6-----------6----6----6----|


E|-3-------5------------------|----------------------------|---------0------------------|
B|----------------------------|-----------------------6----|-6--------------------------|
G|-----------------------2----|-2-------3------------------|----------------------------|
D|-3-----------3----3----3----|-3-----------3----3----3----|-----------------------7----|
A|----------------------------|----------------------------|-3-----------3----3----3----|
E|----------------------------|----------------------------|----------------------------|


E|-----------------------8----|
B|----------------------------|
G|---------3------------------|   back to verse...
D|-7--------------------------|
A|-3-----------3----3---------|
E|-----------------------8----|


Outro:


E|---------------------|---------------------|-----------1----3----|
B|---------------------|---------------------|-----------3----3----|
G|-3----3----3---------|---------------------|-3----3----3----3----|
D|-0----0----0----0----|-0----0----0----0----|-3----3----3----3----|
A|---------------------|---------------------|-1----1----1----1----|
E|-3----3----3----3----|-3----3----3----3----|---------------------|

E|-3----5----5---------|---------------------|---------------------|----------------3----|
B|-3----3----3---------|---------------------|---------------------|-5----5----6----5----|
G|-3----3----3----2----|-2----2----2----2----|-2----2----2----2----|-5----5----5----5----|
D|-3----3----3----3----|-3----3----3----3----|-3----3----3----3----|-5----5----5----5----|
A|-1--------------3----|-3----3----3----3----|-3----3----3----3----|-3----3----3----3----|
E|----------------1----|-1----1----1----1----|-1----1----1----1----|---------------------|


E|-3----5----5---------|
B|-5----5----5---------|
G|-5----5----5----3----|
D|-5----5----5----0----|
A|-3----3----3---------|
E|----------------3----|
Tap to rate this tab
# A B C D E F G H I J K L M N O P Q R S T U V W X Y Z