Song name
# A B C D E F G H I J K L M N O P Q R S T U V W X Y Z

Nine Inch Nails - The Big Come Down tab

Tabbed by: TheNiNGuitarist, Youtube search me!!!!
Band:Nine Inch Nails
Song: The Big Come Down (LIVE)
video:http://www.youtube.com/watch?v=yDEfc98IucM
V= Vibrato
///= Tremolo Pick
P= Pull Off
h= pinch harmonic
Sound- I use my wah pedal in the treble position and i have either a MT-2 Boss pedal or 
just use a heavy distorted Compressor.
Amp: Treble:85-90 Middle:45-50 Bass:55-65

Robin Finck: every time Robin plays this main riff, right before he plays the pull off 
again: 12p9.. he waits and does a pinch harmonic on the 4string(D)
E-------------------------------------------------|
B-------------------------------------------------|
G-------------------------------------------------|
D-------17--15v--17-wait12h-------17--15v-wait12h-|
A-------------------------------------------------|
D--12p9----------------------12p9-----------------|

Chorus:"There is no place I can go"
E-------------------------------------------------|
B-------------------------------------------------|
G-------------------------------------------------|
D---8-8-8-8-8-8-8-8----5-5-5-5-5-5-5-5------------|
A---8-8-8-8-8-8-8-8----5-5-5-5-5-5-5-5------------|
D---8-8-8-8-8-8-8-8----5-5-5-5-5-5-5-5------------|

Verse:"There is a hate that burns within"
E-------------------------------------------------|x2
B-------------------------------------------------|
G----11-11----10-10-10----------------------------|
D----x--x-----x--x--x-----------------------------|
A----9v-9v----8v-8v-8v----------------------------|
D-------------------------------------------------|


Pre-Solo: Acoustic Sound
E-------------------------------------------------|
B-------------------------------------------------|
G-------------------------------------------------|
D-10v-10v-10v-10v-10v-10v-10v-10v-10v-10v-10v-10v-|
A-------------------------------------------------|
D-------------------------------------------------|

Solo: After every solo stop,stop and do the following below

E-------------------------------------------------| x3
B-------------------------------------------------|
G-------------------------------------------------|
D--12///-10///-12///-10///------------------------|
A-------------------------------------------------|
D-------------------------------------------------|
After Every Solo: repeat this part twice
E-------------------------------------------------|x2
B-------------------------------------------------|
G----11-11----10-10-10----------------------------|
D----x--x-----x--x--x-----------------------------|
A----9v-9v----8v-8v-8v----------------------------|
D-------------------------------------------------|
then last solo

E-------------------------------------------------------|
B-------------------------------------------------------|
G-------------------------------------------------------|
D--121212121-10101010---20///-19///-18///-17///---------|
A-------------------------------------------------------|
D-------------------------------------------------------|

Outro: just repeat main riff. after last solo

All figured out by TheNiNGuitarist
Tap to rate this tab
 
# A B C D E F G H I J K L M N O P Q R S T U V W X Y Z