Song name
# A B C D E F G H I J K L M N O P Q R S T U V W X Y Z

Nine Inch Nails - March Of The Pigs tab

March of the Pigs - Nine Inch Nails

Standard Tuning

|------------------------|
|------------------------|
|------------------------|X6
|------------------------|
|-------------5-5-6-6-8--|
|------5-6-8-------------|

|------------------|
|------------------|
|--7-7-7-7---------|X3
|--7-7-7-7-5-3-----|
|--5-5-5-5-5-3-3---|
|--------------4---|

|----------------------|
|----------------------|
|--7-7-7-7-------------|
|--7-7-7-7-5-3-2-3-5-6-|
|--5-5-5-5-5-3-2-3-5-6-|
|----------------------|

Repeat until this part :

|----------------------------------------------------------------|
|----------------------------------------------------------------|
|----------------------------------------------------------------|X3
|----------------------------------------------------------------|
|5555555555555555------------------------------------------------|
|----------------444444444444444433333333333333331111111111111111|

|--------------------------------|
|--------------------------------|
|--------------------------------|
|--------------------------------|
|5555555555555555----------------|
|----------------4444444444444444|

|------------|
|--3-5---5-7-|
|--3-5--5--7-|
|--3-5-5---7-|
|------------|
|------------|

Repeat Everything 

Second accoustic part

|---------------------------------------------------------|
|--3-5---5-7-----------5---5-7---3-5-7---------------13---|
|--3-5--5--7-----3-----5--5--7---3-5-7-------------10-----|
|--3-5-5---7---3-3-3-3-5-5---7---3-5-7------------10------|
|--------------------1-----------1-3-5--5-7-9----9--------|
|---------------------------------------6-8-10-10---------|

Tap to rate this tab
# A B C D E F G H I J K L M N O P Q R S T U V W X Y Z