Song name
# A B C D E F G H I J K L M N O P Q R S T U V W X Y Z

Nine Inch Nails - The Hand That Feeds tab

intro
|-----------------|
|-----------------|
|-----------------|
|-----------------|
|-------------3---|
|--3-5-5-3-5------|(x8)

chorus
|------------------------------------------------------------------|
|------------------------------------------------------------------|
|--5-5-5-5-5-5-5-5-5-5-5-5-4-4-4-4-2-2-2-2-2-2-2-2-----------------|
|--------------------------------------------------5-5-5-5-5-5-5-5-|
|------------------------------------------------------------------|
|------------------------------------------------------------------|

|--------------------------------------------------------------------|
|--------------------------------------------------------------------|
|--5h6--6-6-6-6-6-6-6-6-6-6-6-6-6-6-5h6--6-6-6-6-6-6-6-6-6-6-6-6-6-6-|
|--------------------------------------------------------------------|
|--------------------------------------------------------------------|
|--------------------------------------------------------------------|

|------------------------------------------------------------------|
|------------------------------------------------------------------|
|--5-5-5-5-5-5-5-5-5-5-5-5-4-4-4-4-2-2-2-2-2-2-2-2-----------------|
|--------------------------------------------------5-5-5-5-5-5-5-5-|
|------------------------------------------------------------------|
|------------------------------------------------------------------|

|-----------------|
|-----------------|
|-----------------|
|-----------------|
|-------------3---|
|--3-5-5-3-5------|(x12)

chorus
|------------------------------------------------------------------|
|------------------------------------------------------------------|
|--5-5-5-5-5-5-5-5-5-5-5-5-4-4-4-4-2-2-2-2-2-2-2-2-----------------|
|--------------------------------------------------5-5-5-5-5-5-5-5-|
|------------------------------------------------------------------|
|------------------------------------------------------------------|

|--------------------------------------------------------------------|
|--------------------------------------------------------------------|
|--5h6--6-6-6-6-6-6-6-6-6-6-6-6-6-6-5h6--6-6-6-6-6-6-6-6-6-6-6-6-6-6-|
|--------------------------------------------------------------------|
|--------------------------------------------------------------------|
|--------------------------------------------------------------------|

|------------------------------------------------------------------|
|------------------------------------------------------------------|
|--5-5-5-5-5-5-5-5-5-5-5-5-4-4-4-4-2-2-2-2-2-2-2-2-----------------|
|--------------------------------------------------5-5-5-5-5-5-5-5-|
|------------------------------------------------------------------|
|------------------------------------------------------------------|

Solo
|-----------------------------------------------------------|
|-----------------------------------------------------------|
|----------------5---5---7----------------------------------|
|--7---7---5---5-------------5---7---7----------------------|
|----0---0---0-----0---0---0---0---0---3-0-3-5-0-5----------|
|--------------------------------------------------3h5--3h5-|(x4)

chorus
|------------------------------------------------------------------|
|------------------------------------------------------------------|
|--5-5-5-5-5-5-5-5-5-5-5-5-4-4-4-4-2-2-2-2-2-2-2-2-----------------|
|--------------------------------------------------5-5-5-5-5-5-5-5-|
|------------------------------------------------------------------|
|------------------------------------------------------------------|

|--------------------------------------------------------------------|
|--------------------------------------------------------------------|
|--5h6--6-6-6-6-6-6-6-6-6-6-6-6-6-6-5h6--6-6-6-6-6-6-6-6-6-6-6-6-6-6-|
|--------------------------------------------------------------------|
|--------------------------------------------------------------------|
|--------------------------------------------------------------------|

|------------------------------------------------------------------|
|------------------------------------------------------------------|
|--5-5-5-5-5-5-5-5-5-5-5-5-4-4-4-4-2-2-2-2-2-2-2-2-----------------|
|--------------------------------------------------5-5-5-5-5-5-5-5-|
|------------------------------------------------------------------|
|------------------------------------------------------------------|

outo
|-----------------|
|-----------------|
|-----------------|
|-----------------|
|-------------3---|
|--3-5-5-3-5------|(x31)

...and thats the song as best I can tell... enjoi!
Tap to rate this tab
 
# A B C D E F G H I J K L M N O P Q R S T U V W X Y Z