Song name
# A B C D E F G H I J K L M N O P Q R S T U V W X Y Z

Nine Inch Nails - Only tab

Only
Nine Inch Nails

Guitar 1

Intro
e|--drums-----|
B|--only------|
G|--for-------|
D|--four------|
A|--measures--|
D|------------|

   (piano)
e|----------------------------|
B|----------------------------|
G|--4-5-4-2-4---4-5-4-2-5/16--| x4
D|--x-x-x-x-x---x-x-x-x-x-x---|
A|--2-3-2-0-2---2-3-2-0-2/14--|
D|----------------------------|


Verse 1
e|------------|----------------|
B|--rest------|----------------|
G|--for-------|--4<<<<<<<<<<#--|
D|--four------|--4<<<<<<<<<<#--|
A|--measures--|--2<<<<<<<<<<#--|
D|------------|----------------|
                            ^stop when vocals start

e|----------------------------------|
B|--start---------------------------|
G|---after---------|--4<<<<<<<<<<#--|
D|--“how-I---------|--4<<<<<<<<<<#--|
A|----see-myself”--|--2<<<<<<<<<<#--|
D|-----------------|----------------|
                                 ^stop at “I think I can…”

e|-----------------|----------------|
B|--start----------|----------------|
G|---at------------|--4<<<<<<<<<<#--|
D|--“less----------|--4<<<<<<<<<<#--|
A|-----concerned”--|--2<<<<<<<<<<#--|
D|-----------------|----------------|
                                 ^stop at “you’re world”

e|--------------|----------------|
B|--start-------|----------------|
G|---at---------|--4<<<<<<<<<<#--|
D|--“really-----|--4<<<<<<<<<<#--|
A|-----matter”--|--2<<<<<<<<<<#--|
D|--------------|----------------|
                              ^stop at “none of this”

e|----------------------|
B|----------------------|
G|--4----9----2----7----| x2
D|--x----x----x----x----|
A|--2----7----0----5----|
D|----------------------|
    ^    ^    ^    ^
  play each note 16 times


Chorus
e|----------------------------|
B|----------------------------|
G|--4-5-4-2-4---4-5-4-2-5/16--| x4
D|--x-x-x-x-x---x-x-x-x-x-x---|
A|--2-3-2-0-2---2-3-2-0-2/14--|
D|----------------------------|


Post-Chorus
e|------------|
B|------------|
G|--4----14---| x4
D|--x----x----|
A|--2----12---|
D|------------|
    ^    ^
  play each note 16 times


Verse 2
e|-------------|--------------------------------|
B|--start------|--------------------------------|
G|---at--------|--4----9----2----7----4----9----|
D|-----“now-I--|--x----x----x----x----x----x----|
A|-------am”---|--2----7----0----5----2----7----|
D|-------------|--------------------------------|
                  ^    ^    ^    ^    ^    ^
                    play each note 16 times


Chorus
e|----------------------------|
B|----------------------------|
G|--4-5-4-2-4---4-5-4-2-5/16--| x4
D|--x-x-x-x-x---x-x-x-x-x-x---|
A|--2-3-2-0-2---2-3-2-0-2/14--|
D|----------------------------|


Post-Chorus
e|------------|
B|------------|
G|--4----14---| x4
D|--x----x----|
A|--2----12---|
D|------------|
    ^    ^
  play each note 16 times
Tap to rate this tab
 
# A B C D E F G H I J K L M N O P Q R S T U V W X Y Z