Nine Inch Nails - Adrift And At Peace tab

Intro (0:08) [-Repeat Three Times-]
e|-7-5---7-5---7-8---10-8--7-5-----|
B|---------------------------------|
G|---------------------------------|
D|---------------------------------|
A|-------------------------------5-|
D|-------------------------------0-|

Verse (0:33)
e|-7-8-----------------------------|
B|-----5---8-10-8-----------8-6----|
G|-------7---------10-9--7------4-5|
D|---------------------------------|
A|---------------------------------|
D|---------------------------------|

e|-7-8-----------------------------|
B|-----5---8-10-8------------------|
G|-------7---------10-9--5/2-------|
D|---------------------------------|
A|---------------------------------|
D|---------------------------------|

e|-7-8-----------------------------|
B|-----5---8-10-8-----------8-6----|
G|-------7---------10-9--7------4-5|
D|---------------------------------|
A|---------------------------------|
D|---------------------------------|

e|-7-8-----------------------------|
B|-----5---8-10-8------------------|
G|-------7---------10-9--5/2-------|
D|---------------------------------|
A|---------------------------------|
D|---------------------------------|

e|-7-8-----------------------------|
B|-----5---8-10-8-----------8-6----|
G|-------7---------10-9--7------4-5|
D|---------------------------------|
A|---------------------------------|
D|---------------------------------| 

e|-7-8-----------------------------|
B|-----5---8-10-8------------------|
G|-------7---------10-9--5/2-------|
D|---------------------------------|
A|---------------------------------|
D|---------------------------------|

e|-7-8-----------------------------|
B|-----5---8-10-8-----------8-6----|
G|-------7---------10-9------------|
D|---------------------------------|
A|---------------------------------|
D|---------------------------------|

e|-7-8-----------------------------|
B|-----5---8-10-8------------------|
G|-------7---------10-9---------4-5|
D|---------------------------------|
A|---------------------------------|
D|---------------------------------|

e|-7-8-----------------------------|
B|-----5---8-10-8-----------8-6----|
G|-------7---------10-9--7------4-5|
D|---------------------------------|
A|---------------------------------|
D|---------------------------------| 

e|-7-8-----------------------------|
B|-----5---8-10-8-----------8-6----|
G|-------7---------10-9--7------4-5|
D|---------------------------------|
A|---------------------------------|
D|---------------------------------|

e|-7-8-----------------------------|
B|-----5---8-10-8------------------|
G|-------7---------10-9------5-7-9-|
D|---------------------------------|
A|---------------------------------|
D|---------------------------------|

e|-7-8-----------------------------|
B|-----5---8-10-8-----------8-6----|
G|-------7---------10-9----7----4-5|
D|---------------------------------|
A|---------------------------------|
D|---------------------------------|

Outro (2:02)

e|-7-8---------------8-12---10-9----10---|
B|-----5---8-10-8-10-------------10----10|
G|-------7-------------------------------|
D|---------------------------------------|
A|---------------------------------------|
D|---------------------------------------|

e|-------9-10-12-9-----------------|
B|-12-10-----------10--------------|
G|------Repeat This is Necessary---|
D|---------------------------------|
A|---------------------------------|
D|---------------------------------|
Tap to rate this tab
 
# A B C D E F G H I J K L M N O P Q R S T U V W X Y Z