Song name
# A B C D E F G H I J K L M N O P Q R S T U V W X Y Z

Nine Inch Nails - Piggy tab

NIN Piggy for the Martin Backpacker acoustic six string guitar. This is my first tab. 
can play along with:  http://www.youtube.com/watch?v=4NOYCzRzZIs&feature=related


 intro
|-------------------------------------------------------------------------------------------------|
|-------------------------------------------------------------------------------------------------|
|-------------------------------------------------------------------------------------------------|
|-------------------------------------------------------------------------------------------------|
|2--5----------2--5--------------2---5----------2---5--------------2---5----------2--5------------|
|-----5--4--3-------5--4--4>3-3--------5--4--3--------5--4--4>3-3--------5--4--3-------5--4--4>3-3|


2nd verse (4 times)
-|-----------------------------------------------------------|
-|-----------------------------------------------------------|
-|-----------------------------------------------------------|
-|-----------------------------------------------------------|
-|-----------------------------------------------------------|
-|-0-2-2-2-2---0-2-2-2-2--0-2-2--0-2-2-2-2--0--2>3-3-3-5-----|


-|---------------------------------------------------------------------------------------------|
-|---------------------------------------------------------------------------------------------|
-|---------------------------------------------------------------------------------------------|
-|---------------------------------------------------------------------------------------------|
-|-2--5------------2--5---------------2---5------------2---5----------------2--5---------------|
-|-------5--4--3--------5--4--4>3-3---------5---4---3--------5--4--4>3-3----------5--4>3-3-----|


verse (4 times)
-|-----------------------------------------------------------|
-|-----------------------------------------------------------|
-|-----------------------------------------------------------|
-|-----------------------------------------------------------|
-|-----------------------------------------------------------|
-|-0-2-2-2-2---0-2-2-2-2--0-2-2--0-2-2-2-2--0--2>3-3-3-5-----|
Tap to rate this tab
 
# A B C D E F G H I J K L M N O P Q R S T U V W X Y Z