Song name
# A B C D E F G H I J K L M N O P Q R S T U V W X Y Z

Nine Inch Nails - Terrible Lie Acoustic tab

Date: Mon, 23 Jul 2001 15:52:09 -0400
From: "Joe M" 
Subject: n/nine_inch_nails/terrible_lie_acoustic.tab

Song: Terrible Lie (Acoustic)
Artist: Unknown, but not Nine Inch Nails
Album: From Highway to Hell (A Marilyn Manson import)
As tabbed by Joe Muggah

Dropped D tuning
p = pull-off

Chords used:
   Dm       Bb       F       C      Csus4    p
e---1--------1---------------0--------1-----1p0----------|
B---3--------1-------6-------1--------1------------------|
G---2--------3-------5-------0--------0------------------|
D---0--------3-------3-------2--------2------------------|
A---0--------1-------3-------3--------3------------------|
D--------------------3-----------------------------------|


Intro:
   Dm        Bb         F       C    Csus4  p C

Verse:
   Dm                              Bb
Hey God, Why are you doing this to me?
F                       C                   Csus4   p C
Am I not living up to what I'm supposed to be?
Dm                                 Bb
Why am I seething with this animousity?
     F                          C             Csus4  p C
Hey God, I think you owe me a great big apology.

Chorus:
   Dm            Bb                F          Csus4  p C
Terrible Lie            Terrible Lie
   Dm            Bb                F          Csus4  p C
Terrible Lie            Terrible Lie

Bridge
e--1---------1--------1-1-----------0---1--0--------------|
B--3---------1--------1-1--6--------1---------------------|
G--2---------3--------3-3--5--------0---------------------|
D--0---------3--------3-3--3--------2---------------------|
A--0---------1--------1-1--3--------3---------------------|
D--------------------------3------------------------------|
("Don't take it away from me...")

(continued)
e--1-1-----1--1-1-----1-1-----------0---0--0--------------|
B--3-3-----3--1-1-----1-1--6--------1---1----1------------|
G--2-2-----2--3-3-----3-3--5--------0---0------0----------|
D--0-0-----0--3-3-----3-3--3--------2---2--------0--------|
A--0-0-----0--1-1-----1-1--3--------3---3-----------------|
D--------------------------3------------------------------|

Solo
e--------1---------------------1------------------1-------|
B----------3------3---------------------6-----------1-----|
G---2--------2----2-------3---------------5---------------|
D-0---0--------0--------3---3----3----------3---------3-3-|
A--------------0------1-----------------------3-----------|
D------------------------------------3----------3---------|
("Hey God...Hey God...")

(continued)
e-1p0--0----------1------------1---------1----1-----------|
B--------1----------3--------------------1----1-----------|
G----------0----------2---2------3------------------------|
D--------------0--------0---0---------3----3------3-------|
A-----------------------------------1-----------1---------|
D---------------------------------------------------------|

(continued)
e---------------1--------1p0--0---------------------------|
B----6------------1-------------1-------------------------|
G----5----------------------------0-----------------------|
D------3-----3------2-------------------------------------|
A--------3------------3--------------3--------------------|
D-3--------3----------------------------------------------|

Verse 2
e-----1--------------------1------------------------------|
B---------3------------------3-------------6--------------|
G---2---2---2-2----------------------------5--------------|
D----------------0----3--------3----3--------3--3--3------|
A----------------0--1---1---------1----------3--3--3--3---|
D-0-------------------------------------3-----------------|
("Hey God, there's nothing left...")

(continued)
e-0----1p0----------1---------1---------------------------|
B---1------1--------3---------1---------------------------|
G------------0--------------------------------------------|
D-----------------------0--------3---3----x---------------|
A----------------0----0---1--------1---1--x---------------|
D----------------0------------------------x---------------|

Outro
e----1--------1-----------1---1---------------------------|
B------3------------------3---3-----------------6---6-----|
G-----------------2-----------------------------5---5-----|
D---------------0------3--------3-------------------------|
A--------0-0---------1------1-----1--1-0-----3------------|
D-0----------------------------------------3------3-------|

(continued)
e------------------1p0--0--------------1----------1-------|
B-------------------------1------------3----------3-------|
G---------------------------0------------2----------2-----|
D-3-----------2------------------2---------0---0------0---|
A---3-------3---3--------------3--------------------------|
D-----3--3--------------------------0--------0------------|

(continued)
e-----1---------1------------------------1p0---0----------|
B-----3------------------6------6----------------1-----3--|
G------------------------5------5------------0-----0---2--|
D---3---3----3------------------------2----------------0--|
A-1-------1----------3-----3------3-3------------------0--|
D------------------3---------3-------------------------0--|

Intro
Verse
Chorus
Verse
Chorus
Bridge
Solo
Verse 2
Chorus
Verse
Outro

This is an all acoustic version of the NIN song. Though
Tap to rate this tab
 
# A B C D E F G H I J K L M N O P Q R S T U V W X Y Z