Song name
# A B C D E F G H I J K L M N O P Q R S T U V W X Y Z

Nine Inch Nails - 13 Ghosts Ii tab

Song: 13 Ghosts II
Artist: Nine Inch Nails
Album: Ghosts I-IV
Tuning: Drop B

Yes, I know this song's been done, but I felt it should be done in the drop tuning.

Piano
|-----------------------------------------------------------------------| 
|-----------------------------------------------------------------------|
|----------0~----------------0~-------2-----3---------------------------|
|-0~-------1~-------0~-------1~---------------1~---------------3~-------| 
|-1~----------------1~------------------------1~-------3-----1(1)~------|
|-----------------------------------------------------------------------|

Swells
|-13~-------------------------------------------------------------------| 
|-------------------------------------------------------11~-------------|
|-----------------------------------------------------------------------|
|-8~--------------------------------------------------------------------| 
|-----------------------------------------------------------------------|
|-----------------------------------------------------------------------|

Alternate Way
|-----------------------------------------------------------------------| 
|-----------------------------------------------------------------------|
|-----------------------------------------------------------------------|
|----------5~----------------5~-------7-----8---------------------------| 
|-5~-------6~-------5~-------6----------------6~---------------8~-------|
|-8~----------------8~------------------------8~-------10----8(8)~------|
(I tabbed this on a nylon classical guitar, and this version sounds better, but the one above is simpler, so I submitting both)

And repeat.
And yer done.
Tap to rate this tab
 
# A B C D E F G H I J K L M N O P Q R S T U V W X Y Z