Song name
# A B C D E F G H I J K L M N O P Q R S T U V W X Y Z

Nine Inch Nails - 11 Ghosts Ii tab

Song: 11 Ghosts II
Artist: Nine Inch Nails
Album: Ghosts I-IV
Tuning: Drop D


Main Riff
|------------------------------------------------------------------|
|------------------------------------------------------------------|
|------------------------------------------------------------------|
|-(6p5h6)---------6------6-6~------------5------5---6~-------------|
|------------5-----------------------------------------------------|
|-----------------0~-----------------------------------------------|

The pedal tone keeping the beat throughout the song is a low D.

Piano at 0:08      at 0:16
|-10---12~--------------------10~----------------------|
|------------------------11~---------10~---------------|
|-8~---------------------------------13~---------------|
|------------------------------------------------------|
|------------------------------------------------------|
|------------------------------------------------------|

Piano at 0:21    at 0:25
|-----------------------------------10~----------------|
|-----6b-----------------------------------------------|
|-5--------5------------------------7-------13~--------|
|------------------------------------------------------|
|-------------------0---2---3~--------------12~--------|
|-------------------0----------------------------------|

Strings at 0:31		          Strings (continue down chromatically
|-10---9---7~-----------------------13-12-etc.------and fade out)----|
|--------------------------------------------------------------------|
|---------------------13~-----------------------------13~------------|
|-----------------------------------------------------12~------------|
|---------------------11~-----------------------------12~------------|
|--------------------------------------------------------------------|
		      Woodwinds?	 	      Piano

Oboe at 0:43         backing instruments
|--------------------------------------------------|
|-11~--------10~-----------------------------------|
|--------------------13---12---11---10~------------|
|-----------------------------------0-~------------|
|--------------------------------------------------|
|--------------------------------------------------|

Thus begin the wavering notes and different combinations of the riffs above.

Piano at 1:43
|-10-11-10-12--|
|--------------|
|--------------|
|--------------|
|--------------|
|--------------|

From there it continues using the same riffs above in different orders, until the two 
mark, where it's just the main riff and percussion, both distorted.

And yer done.
Tap to rate this tab
 
# A B C D E F G H I J K L M N O P Q R S T U V W X Y Z