Song name
# A B C D E F G H I J K L M N O P Q R S T U V W X Y Z

Nine Inch Nails - Right Where It Belongs Live tab

Tabbed by: Revro

This transcription is from the live version from the Beside You In Time tour.
Play gently and slowly and try to let the low notes ring out.

Verse:
e|------------------------------------------------------------------------|
B|---------------------------------------------------5--6-------------3---|
G|---7---7---7--5--7---7---7---7-7-9p7----5---5---5---------3---3---3---3-|
D|------------------------------------------------------------------------|
A|-5---5---5---------5---5---5----------3---3---3---------1---1---1-------|
E|------------------------------------------------------------------------|

Refrain:
e|------------------------------------------------------------------------|
B|------------------------------------------------------------------------|
G|---------------------7----------------------------------7----7----------|
D|---5---5---5---5---8---8----8----8---3---3---3---3---10---10---10----10-|
A|-------------------------10---10----------------------------------10----|
E|-3---3---3---3---6---6---6----6----1---1---1---1---8----8----8----8-----|

/  slide up
\  slide down
h  hammer on
p  pull off
x  mute note
Tap to rate this tab
 
# A B C D E F G H I J K L M N O P Q R S T U V W X Y Z