Song name
# A B C D E F G H I J K L M N O P Q R S T U V W X Y Z

Nine Inch Nails - The Becoming tab

This is my first tab, so there may be one or two mistakes.

Main riff:
|-------------------------------------------------------------------------------|
|-------------------------------------------------------------------------------|
|-------------------------------------------------------------------------------|
|-------------------------------------------------------------------------------|
|------------------------------------3--1---------------------------------------|
|3--3--3--3-----4--3--1--3--4--3--4--------3--3--3--3------3--4--3--1--1--1--1--|

8 without lyrics and 8 with lyics

Lyrics:
I beat my machine, it's a part of me, it's inside of me 
I'm stuck in this dream, it's changing me, I am becoming 
The me that you know he had some second thoughts 
He's covered with scabs and he is broken and sore 
The me that you know doesn't come around much 
That part of me, isn't here anymore 

Then Main Riff 4 without lyrics and 12 with lyrics

Lyrics:
All pain disappears, it's the nature of, of my circuitry 
Drowns out all I hear, there's no escape from this, my new consciousness 
The me that you know, he used to have feelings 
But the blood has stopped pumping and he's left to decay 
The me that you know is now made up of wires 
And even when I'm right with you, I'm so far away 
I can try to get away, but I've strapped myself in 
I can try to scratch away the sound in my ears 
I can see it killing away all my bad parts 
I don't want to listen, but it's all too clear 

Melodic Part:

|------------------------------------------------------------|
|------------------------------5--5--5--5-----3--3--3--3-----|
|4--4--4--4-----2--2--2--2-----5--5--5--5-----3--3--3--3-----|
|5--5--5--5-----3--3--3--3-----5--5--5--5-----3--3--3--3-----|
|5--5--5--5-----3--3--3--3-----3--3--3--3-----1--1--1--1-----|
|3--3--3--3-----1--1--1--1-----------------------------------|

|------------------------------------------------------------|
|---------------5--5--5--5-----------------------------------|
|2--2--2--2-----5--5--5--5-----2-----x--x-----x-----x--x-----|
|3--3--3--3-----5--5--5--5-----3-----x--x-----x-----x--x-----|
|3--3--3--3-----3--3--3--3-----3-----x--x-----x-----x--x-----|
|1--1--1--1--------------------1-----x--x-----x-----x--x-----|


2 without lyrics and 2 with lyics

Lyrics:
Hiding backwards inside of me, I feel so unafraid
Annie, hold a little tighter, I might just slip away

Then Main riff:

|-------------------------------------------------------------------------------|
|-------------------------------------------------------------------------------|
|-------------------------------------------------------------------------------|
|-------------------------------------------------------------------------------|
|------------------------------------3--1---------------------------------------|
|3--3--3--3-----4--3--1--3--4--3--4--------3--3--3--3------3--4--3--1--1--1--1--|

4 without lyrics, with

Electronic part:

|----------------------------------------------------------------------|
|---------3h-------3--4--------3h-------3-----------3h----3------------|
|4--4--4--------4--------4--4--------4-----5--4--4-----------6--5--4---|
|----------------------------------------------------------------------|
|----------------------------------------------------------------------|
|----------------------------------------------------------------------|

|----------------------------------------------------------------------|
|---------3h-------3--4--------3h-------3-----------3h----3------------|
|4--4--4--------4--------4--4--------4-----5--4--4-----------6--5--4---|
|----------------------------------------------------------------------|
|----------------------------------------------------------------------|
|----------------------------------------------------------------------|

then

Bass part:
|----------------------------------------------------------------------|
|----------------------------------------------------------------------|
|----------------------------------------------------------------------|
|----------------------------------------------------------------------|
|---2--3--------------------------------2--3---------------------------|
|1--------1-----1--1-----1h----1h----1--------1-----1h----1h----1h-----|

|----------------------------------------------------------------------|
|----------------------------------------------------------------------|
|----------------------------------------------------------------------|
|---2--3--------------------------------2--3---------------------------|
|1--------1-----1--1-----1h----1h----1--------1-----1h----1h----1h----1|
|----------------------------------------------------------------------|

then Main riff 8 with lyics, with

2nd Bass part:
|----------------------------------------------------------------------|
|----------------------------------------------------------------------|
|----------------------------------------------------------------------|
|----------------------------------------------------------------------|
|---------------------------------------------------------2h----2h-----|
|----------------------------------------------------------------------|

4 then

Heavy part:
|----------------------------------------------------------------------|
|----------------------------------------------------------------------|
|----------------------------------------------------------------------|
|-----5-----555-6---5-----556-556-5-----555-6---5-----555-555-5--------|
|-----5-----555-6---5-----556-556-5-----555-6---5-----555-555-5--------|
|-----3-----333-4---3-----334-334-3-----333-4---3-----333-333-3--------|

4

Lyrics: 
It won't give up, it wants me dead
Goddamn this noise inside my head
It won't give up, it wants me dead
Goddamn this noise inside my head
It won't give up, it wants me dead
Goddamn this noise inside my head
It won't give up, it wants me dead
Goddamn this noise inside my head
It won't give up, it wants me dead
Goddamn this noise inside my head
It won't give up, it wants me dead
Goddamn this noise inside my head
It won't give up, it wants me dead
Goddamn this noise inside my head
It won't give up, it wants me dead
Goddamn this noise inside my head 

Then, to finish, Melodic Part:

|------------------------------------------------------------|
|------------------------------5--5--5--5-----3--3--3--3-----|
|4--4--4--4-----2--2--2--2-----5--5--5--5-----3--3--3--3-----|
|5--5--5--5-----3--3--3--3-----5--5--5--5-----3--3--3--3-----|
|5--5--5--5-----3--3--3--3-----3--3--3--3-----1--1--1--1-----|
|3--3--3--3-----1--1--1--1-----------------------------------|

|------------------------------------------------------------|
|---------------5--5--5--5-----------------------------------|
|2--2--2--2-----5--5--5--5-----2-----x--x-----x-----x--x-----|
|3--3--3--3-----5--5--5--5-----3-----x--x-----x-----x--x-----|
|3--3--3--3-----3--3--3--3-----3-----x--x-----x-----x--x-----|
|1--1--1--1--------------------1-----x--x-----x-----x--x-----|

7
Tap to rate this tab
# A B C D E F G H I J K L M N O P Q R S T U V W X Y Z