Song name
# A B C D E F G H I J K L M N O P Q R S T U V W X Y Z

Nine Inch Nails - Last tab

--------------------------------------------------------------------
                                Last
                           Nine Inch Nails
--------------------------------------------------------------------

This is as close as I can get it. This is a noisy, overdriven
song and it's very old so it was pretty hard to get some parts
but I think I have it. My advice: drop your mids and throw in
some reverb. That almost nails the sound for me. Good luck.
There are some parts I'm absolutely sure on, others I'm not.
The solo, verse and bridge I know are correct.

Tune to Drop D
--------------------------------------------------------------------

Verse 6x
e---------------------------------------------|
B--------------9-9----------------------------|
G-7-7--5/7-5/7-8-8--7-7-5/7-------------------|
D-7-7--5/7-5/7-6-6--7-7-5/7-------------------|
A-5-5--3/5-3/5------5-5-3/5-------------------|
D----------------------------0-0-0-0-0-0-0----|
                           PM-----------------|

Or you can play the end like this
e-----------------|
B-----------------|
G-----------------|
D-----------------|
A-------5---3-5---|
D-0-0-0-5-0-3-5---|
PM----------------|


Bridge [Slide] 4x
e---------------------|
B---------------------|
G-5---6--7------------|
D-5---6--7--5---6--7--|
A-3---4--5--5---6--7--|
D-----------5---6--7--|

Or you can strum it quickly
e-----------------------------------|
B-----------------------------------|
G-5-5-5-6-6-6-7-7-------------------|
D-5-5-5-6-6-6-7-7--5-5-5-6-6-6-7-7--|
A-3-3-3-4-4-4-5-5--5-5-5-6-6-6-7-7--|
D------------------5-5-5-6-6-6-7-7--|


Solo [2x]
e------------------------------------------------------------|
B------------------------------------------------------------|
G------------------------------------------------------------|
D--------------------------3-3p0-----------------------------|
A-3-5-5-3-5-3-----3--3-5-3---------3-5-5-3-5-3-----3---------|
D-------------6--------------------------------6-5---6-5-3~--|


Verse 2 6x
e--------------------------------------------|
B--------------9-9---------------------------|
G-7-7--5/7-5/7-8-8--7-7-5/7--------7---9/10--|
D-7-7--5/7-5/7-6-6--7-7-5/7--------7---9/10--|
A-5-5--3/5-3/5------5-5-3/5------------------|
D----------------------------0-0-0---0-------|


Bridge again 4x then:


Noisy electronic $#!^ 4x [Listen to song to get timing]
e--------------------------|
B--------------------------|
G----5---6---7---8---9/10--|
D----5---6---7---8---9/10--|
A----3---4---5---6---7/08--|
D-0-0---0---0---0---0------|


Another bridge?? Last notes are harmonics.
e----------------12--|
B----------------12--|
G----------------12--|
D-3b-5b-6b-----------|
A----------5p3b------|
D--------------------|

Verse 3 4x
e----------------------------|
B----------------------------|
G----5-----7-----8-----9/10--|
D----5-----7-----8-----9/10--|
A----3-----5-----6-----7/08--|
D-0-0---0-0---0-0---0-0------|

Bridge 4x


Noisy electronic $#!^ a bunch of times


Verse 4 a million times
e----------------------------|
B--------------9-9-----------|
G-7-7--5/7-5/7-8-8--7-7-5/7--|
D-7-7--5/7-5/7-6-6--7-7-5/7--|
A-5-5--3/5-3/5------5-5-3/5--|
D----------------------------|
Tap to rate this tab
# A B C D E F G H I J K L M N O P Q R S T U V W X Y Z