Song name
# A B C D E F G H I J K L M N O P Q R S T U V W X Y Z

Nine Inch Nails - Sin tab

nine inch nails "Sin"

Album: Pretty Hate Machine

Tabbed by Spencer - This is my really good way i play the song...all parts...synth parts too.

standard tuning            Play fast rhythm

E-------------------------------------------------------------------------|
B-------------------------------------------------------------------------|
G-------------------------------------------------------------------------|
D-------------------------------------------------------------------------|
A-------------------------------------------------------------------------|
E--999-999-9-9-9-10-10-10-10-10-10-10-10-10-777-777-7-7-7-999-999-9-9-9---|

    ^ played throughout (synth main riff)

E-------------------------------------------------------------------------|
B-------------------------------------------------------------------------|
G---------9----9-11-------------------------------------------------------|
D------11---11------11-9-11-----------------------------------------------|
A-------------------------------------------------------------------------|
E---9---------------------------------------------------------------------|

   ^ synth lead #1 (play fast 4x)


  Chorus-distorted guitar comes in (strum fast)
E-------------------------------------------------------------------------|
B-------------------------------------------------------------------------|
G-------------------------------------------------------------------------|
D---11-------12-------9--------12-------11--------------------------------|
A---11-(16x)-12-(16x)-9-(12x)--12-(4x)--11-(16x)--------------------------|
E---9--------10-------7--------10-------9---------------------------------|


  synth lead during chorus
E-------------------------------------------------------------------------|
B-------------------------------------------------------------------------|
G-------------------------------------------------------------------------|
D-------------------------------------------------------------------------|
A---4-4-2/4--4-4-2/4--4-4-2/4--4-4-2/4------------------------------------|
E-------------------------------------------------------------------------|

  Right after first chorus play synth lead #1 by itself

  The other guitar in this is

E-------------------------------------------------------------------------|
B-------------------------------------------------------------------------|
G-------------------------------------------------------------------------|
D---11-------12-------9--------12-------11--------------------------------|
A---11-(16x)-12-(16x)-9-(12x)--12-(4x)--11-(16x)--------------------------|
E---9--------10-------7--------10-------9---------------------------------|

   ^played with wah pedal, heavy distortion and bends occasionally


 Nine inch nails Rocks!!!
 Tabbed by Spencer

 Put a beat on this song and you're ready to play it live! have fun!
Tap to rate this tab
 
# A B C D E F G H I J K L M N O P Q R S T U V W X Y Z