Song name
# A B C D E F G H I J K L M N O P Q R S T U V W X Y Z

Nine Inch Nails - The Becoming tab

The Becoming by Nine Inch Nails
The Downward Spiral (1994)

Tabbed by: Steph J
Email: steph.is.not@gmail.com - Email me if you have any corrections!



Intro/verse -- Palm Muted (repeat)
e--------------------------------------------------------------------------|
b--------------------------------------------------------------------------|
g--------------------------------------------------------------------------|
d--------------------------------------------------------------------------|
a------------------------------4-2-----------------------------------------|
E---3-3-3-3--4-4--2-3-4-2-3------------3-3-3-3--4-4----1-1-1-1-1-----------|


If you are familiar with the Still version and want to throw in the piano notes, look at 
the bracketed notes:
e--------------------------------------------------------------------------|
b--------------------------------[2]---------------------------------------|
g--------------------------------------------------------------------------|
d-------------------------------------------------------------[3]----------|
a------------------------------4-------------------------------------------|
E---3-3-3-3--4-4--2-3-4-2-3------------3-3-3-3--4-4----1-1-1----1----------|


Chorus (repeat)

    G         F         C         Bb        F         C         F  F
e---3-3-3-3---1-1-1-1---x-x-x-x---x-x-x-x---1-1-1-1---x-x-x-x---1-x-1-x-x-x-x--|
b---3-3-3-3---1-1-1-1---5-5-5-5---3-3-3-3---1-1-1-1---5-5-5-5---1-x-1-x-x-x-x--|
g---4-4-4-4---2-2-2-2---5-5-5-5---3-3-3-3---2-2-2-1---5-5-5-5---2-x-2-x-x-x-x--|
d---5-5-5-5---3-3-3-3---5-5-5-5---3-3-3-3---3-3-3-3---5-5-5-5---3-x-3-x-x-x-x--|
a---5-5-5-5---3-3-3-3---3-3-3-3---1-1-1-1---3-3-3-3---3-3-3-3---3-x-3-x-x-x-x--|
E---3-3-3-3---1-1-1-1-----------------------1-1-1-1---x-x-x-x---1-x-1-x-x-x-x--|
Tap to rate this tab
# A B C D E F G H I J K L M N O P Q R S T U V W X Y Z