Song name
# A B C D E F G H I J K L M N O P Q R S T U V W X Y Z

Nine Inch Nails - Everything tab

NINE INCH NAILS - EVERYTHING
STANDARD TUNING ( E A D G B E )
4/4
155 BPM
KEY OF C#


THERE ARE NUMEROUS OVERDUBS FOR THE GUITARS IN THIS SONG
WHICH MAKES IT HARD TO MAKE AN ACCURATE TAB. THIS IS A TEXT
VERSION OF THE GUITAR PRO FILE I POSTED ON ULTIMATE-GUITAR.COM.



VERSE 1
|----------------------------|--------------------------|
|----------------------------|--------------------------|
|----------------------------|--------------------------|
|----------------------------|--------------------------|
|-----------4--4--4--4--4----|--4--4--4--4--4--4--4--4--|
|--4--4----------------------|--------------------------|

|----------------------------|--------------------------||R
|----------------------------|--------------------------||
|----------------------------|--------------------------||
|----------------------------|--------------------------||
|----------------------------|--------------------------||
|--1--1-----4--4--4--4--4----|--4--4--4--4--4--4--4--4--||

                             |--------------------------|
                             |--------------------------|
                             |--------------------------|
                             |--------------------------|
                             |--------------------------|
                             |---1--1--1--4-----4--4--4-|  
PRE-CHORUS (W.DIST)
|----------------------------|--------------------------| 
|----------------------------|--------------------------| 
|----------------------------|--------------------------| 
|----------------------------|--------------------------| 
|--4--3----------------------|--4--3--------------------| 
|---------1--4---------------|--------1--4-----4--4--4--|  

(this figure is played 3 times before the 2nd chorus)



CHORUS (W.DIST)
|-----------------|-----------------|
|-----------------|-----------------|
|-----------------|-----------------|
|-------4-4-4-4-4-|-------7-7-7-7-7-|
|-4-4-4-2-2-2-2-2-|-7-7-7-5-5-5-5-5-|
|-2-2-2-----------|-5-5-5-----------|

|-----------------|-----------------|
|-----------------|-----------------|
|-----------------|-----------------|
|-----------------|-----------------|
|-7-7-7-4-4-4-4-4-|-4-4-4-4-4-4-4-4-|
|-5-5-5-2-2-2-2-2-|-2-2-2-2-2-2-2-2-|
1.
|-----------------|-----------------|
|-----------------|-----------------|
|-----------------|-----------------|
|-------4-4-4-4-4-|-------7-7-7-7-7-|
|-4-4-4-2-2-2-2-2-|-7-7-7-5-5-5-5-5-|
|-2-2-2-----------|-5-5-5-----------|

|-----------------|-----------------||R
|-----------------|-----------------||
|-----------------|-----------------||
|-9-9-9-4-4-4-4-4-|-4-4-4-4-4-4-4-4-||
|-7-7-7-2-2-2-2-2-|-2-2-2-2-2-2-2-2-||
|-----------------|-----------------||
2.
|-----------------|-----------------|-----------------| 
|-----------------|-----------------|-----------------|
|-----------------|-----------------|-----------------|
|-------4-4-4-4-4-|-------7-7-7-7-7-|-9-9-9-4-4-4-4-4-|
|-4-4-4-2-2-2-2-2-|-7-7-7-5-5-5-5-5-|-7-7-7-2-2-2-2-2-|
|-2-2-2-----------|-5-5-5-----------|-----------------|  

(the last bar of the progression is omitted at the end of each chorus)


VERSE 2
|----------------------------|----------------------------|
|----------------------------|----------------------------|
|----------------------------|----------------------------|
|----------------------------|----------------------------|
|----------------------------|----------------------------|
|--16----16-14----14-13------|--13-11----11-9----9--9-----|

|----------------------------|----------------------------|
|----------------------------|----------------------------|
|----------------------------|----------------------------|
|----------------------------|----------------------------|
|----------------------------|----------------------------|
|-11----11-9-------9--8------|--8-9br(11)---9----4--4--4--|

|----------------------------|--------------------------------|
|----------------------------|--------------------------------|
|----------------------------|--------------------------------|
|----------------------------|--------------------------------|
|----------------------------|--------------------------------|
|--16----16-14----14-13------|--13-11-----11-9------9-9br(11)-|

|----------------------------|-----------------------------------||
|----------------------------|-----------------------------------||
|----------------------------|-----------------------------------||
|----------------------------|-----------------------------------||
|----------------------------|-----------------------------------||
|---11----9--9-----9--8--8---|-8-8-8b-8b-8b(9)-8b(9)-8b(9)-8b(9)-||

(the overdubs on this melody make it hard to know exactly what's being
played. there is another guitar in the mix that is an octave higher and
follows the vocal harmonies, ascending when this part descends)
Tap to rate this tab
 
# A B C D E F G H I J K L M N O P Q R S T U V W X Y Z