Song name
# A B C D E F G H I J K L M N O P Q R S T U V W X Y Z

Nine Inch Nails - The Becoming tab

In the Live version, it starts with piano, then guitar.

Intro/Verse:
Piano
e-----------------------------7---------------------------|
b---------------------------------------------------6-----|
g---------------------------6-----------------------------|
d---5-5-5-5-x-6-6-4-5-6-4-5-----5-5-5-5-x-6-6-3-3-3---3---|
a---------------------------------------------------------|
E---------------------------------------------------------|
Guitar
e---------------------------------------------------------|
b---------------------------------------------------------|
g-----------------------------4---------------------------|
d---------------------------------------------------------|
a---------------------------4-----------------------------|
E---3-3-3-3-x-4-4-2-3-4-2-3-----3-3-3-3-x-4-4-1-1-1-1-1---|

Chorus
    G           F           C           Bb          F           C           F     ^ v ^ v  v ^
e---3-3-3-3-x-x-1-1-1-1-x-x-3-3-3-3-x-x-1-1-1-1-x-x-1-1-1-1-x-x-3-3-3-3-x-x-1-1-x-1-x-x-x--x-x---|
b---3-3-3-3-x-x-1-1-1-1-x-x-5-5-5-5-x-x-3-3-3-3-x-x-1-1-1-1-x-x-5-5-5-5-x-x-1-1-x-1-x-x-x--x-x---|
g---4-4-4-4-x-x-2-2-2-2-x-x-5-5-5-5-x-x-3-3-3-3-x-x-2-2-2-2-x-x-5-5-5-5-x-x-2-2-x-2-x-x-x--x-x---|
d---5-5-5-5-x-x-3-3-3-3-x-x-5-5-5-5-x-x-3-3-3-3-x-x-3-3-3-3-x-x-5-5-5-5-x-x-3-3-x-3-x-x-x--x-x---|
a---5-5-5-5-x-x-3-3-3-3-x-x-3-3-3-3-x-x-1-1-1-1-x-x-3-3-3-3-x-x-3-3-3-3-x-x-3-3-x-3-x-x-x--x-x---|
E---3-3-3-3-x-x-1-1-1-1-x-x-------------------------1-1-1-1-x-x-------------1-1-x-1-x-x-x--x-x---|
Tap to rate this tab
# A B C D E F G H I J K L M N O P Q R S T U V W X Y Z